» » »

Leaves That Are Green Tabs (ver.1)

Artists:  A B C D E F G H I J K L M N O P Q R S T U V W X Y Z # 

Leaves That Are Green Tabs (ver.1)

Simon And Garfunkel
Rating:
0/5 (0 votes)
Tabs too difficult? Try these video lessons and learn fast.
                This is an attempt to capture as much of the instrumentation as possible 
into a tab.  Which means that it sounds good by itself, but is not easy to 
play.  Too bad.


Leaves That Are Green  - Simon & Garfunkel
~~~~~~~~~~~~~~~~~~~~~

Capo 2nd fret.
4/4 time.

   , . , . , . , .   , . , . , . , .   , . , . , . , .   , . , . , . , .
||-----------0-----|-2h3---2--p0-----|-----------------|-----------------|
||-----3-----------|-------------3---|-----------2-----|-3h5---3--p2-----|
||-----2-------2---|-----2-------2---|-------4---------|-------------4---|
||-0---------------|-0---------------|-----4-------4---|-----4-------4---|
||---------0-------|---------0-------|-2---------------|-2---------------|
||-----------------|-----------------|---------2-------|---------2-------|



  , . , . , . , .   , . , . , . , .   , . , . , . , .   , . , . , . , .
|-----------------|-----------------|-0---2p0---------|-----0-----------||
|-----------0-----|-2-----2---3-----|-----------3---2-|-------0h2-2---3-||
|-2-----2---------|---------------2-|-----------------|-----------------||
|-----2-------2---|-----2-------2---|-----2-------2---|-----2-------2---||
|-0---------------|-0---------------|-0---------------|-0---------------||
|---------0-------|---------0-------|---------0-------|---------0-------||



    , . , . , . , .   , . , . , . , .   , . , . , . , .   , . , . , . , .
||------2-----2-----|-----0-----0-----|-----0-----------|-----0h2---3---2-|
||------------------|---------------0-|-------0---2---3-|-----------------|
||*-----2-------2---|-----0-------0---|-----2-------2---|-----2-------2---|
||*-0---------------|-2---------------|---------2-------|-0---------------|
||----------0-------|---------2-------|-0---------------|---------0-------|
||------------------|-----------------|-----------------|-----------------|
        I was 21      years    when I       wrote   this  song
    heart       was   filled   with the love        of a  girl


  , . , . , . , .   , . , . , . , .   , . , . , . , .   , . , . , . , .
|-----2-----0-----|-----2-----0-----|-2---------2-----|-----3-------0---|
|---------------3-|-----------------|-----3-----------|-----0-----------|
|-----2-------2---|-----2-------2---|-------2-----2---|-------------2---|
|-0---------------|-0---------------|-0---------------|-2---------------|
|---------0-------|---------0-------|---------0-------|---------4-------|
|-----------------|-----------------|-----------------|-----------------|
                        I'm 22        now     but  I    won't be    for
                        I  held  her  close   but she   faded   with the


  , . , . , . , .   , . , . , . , .   , . , . , . , .   , . , . , . , .
|-----0h2---3---2-|-----2p0---------|-----------------|-----------------|
|-----------------|-----------3-----|-----3-------3---|-----3-----3---2-|
|-----2-------2---|-----2-------2---|-0---------------|-------0---------|
|-0---------------|-0---------------|-----0-------0---|-----0-------0---|
|---------0-------|---------0-------|---------2-------|---------2-------|
|-----------------|-----------------|-3---------------|-3---------------|
  long                                Time                      hurries
  night                     Like  a   poem                  I mean't to


  , . , . , . , .   , . , . , . , .   , . , . , . , .   , . , . , . , .
|---------------0-|-----0-----0-----|-----2-----2-----|-----0-------0---|
|-------2---3-----|-------0-------3-|-------3---------|-----1-------1---|
|-----2-------2---|-----2-------2---|-----2-------2---|-----0-----------|
|---------2-------|---------2-------|-0-------0-------|-----------------|
|-0---------------|-0---------------|-----------------|-3-------2---0---|
|-----------------|-----------------|-----------------|-----------------|
  on                        And  the  leaves            that are
  write                     And  the  leaves            that are


  , . , . , . , .   , . , . , . , .   , . , . , . , .   , . , . , . , .
|-----------------|-----------------|-----0h2---3---2-|-----2-----2-----|
|-----3-----3---2-|-------0---2---3-|-----------------|---------------3-|
|-------0---------|-----2-------2---|-----2-------2---|-----2-------2---|
|-----0-------0---|-----------------|-0---------------|-0---------------|
|---------2-------|-0-------0-------|---------0-------|---------0-------|
|-3---------------|-----------------|-----------------|-----------------|
  green                     turn  to  brown
  green                     turn  to  brown


  , . , . , . , .   , . , . , . , .   , . , . , . , .   , . , . , . , .
|-----------0---2-|-----2-----2-----|-----------------|-----------------|
|-----3-----------|-----------------|-----------2-----|-3h5---3--p2-----|
|-----2-------2---|-----2-------2---|-------4---------|-------------4---|
|-0---------------|-0---------------|-----4-------4---|-----4-------4---|
|---------0-------|---------0-------|-2---------------|-2---------------|
|-----------------|-----------------|---------2-------|---------2-------|
                            And they  wither  with the wind
                            And they  wither  with the wind


  , . , . , . , .   , . , . , . , .   , . , . , . , .   , . , . , . , .
|-----2-----------|-----------------|-----------------|-----------------|
|-----3-------2---|-3h5---3--p2-----|-----------0-----|-2-----2---3-----|
|-----4-----------|-------------4---|-2-----2---------|-----------------|
|-----4-------4---|-----4-------4---|-----2-------2---|-----2-------2---|
|-2---------------|-2---------------|-0---------------|-0---------------|
|---------2-------|---------2-------|---------0-------|---------0-------|
                            And they  crumble in your   hand
                            And they  crumble in your   hand


  , . , . , . , .   , . , . , . , .
|-0-----0---2-----|-2h3-----2--------||
|-----------------|-2-----------5p3--||
|-----------------|-----------------*||
|-----2-------2---|-----2-------2---*||
|-0---------------|-0----------------||
|---------0-------|---------0--------||
                            Once my


    , . , . , . , .   , . , . , . , .   , . , . , . , .   , . , . , . , .
||------2-----2-----|-----0-----0-----|-----0-----------|-----5-----5-----|
||------------------|-----------------|-----------2-----|-----------------|
||*-----2-------2---|-----0-------0---|-----2-------2---|-----2-------2---|
||*-0---------------|-2---------------|---------2-------|-0---------------|
||----------0-------|---------2-------|-0---------------|---------0-------|
||------------------|-----------------|-----------------|-----------------|
        I  threw  a  pebble             in          a     brook        And
        Hello     hello             hello             hello           Good-


  , . , . , . , .   , . , . , . , .   , . , . , . , .   , . , . , . , .
|-5---5-----5-----|-----5-----5-----|-----3-------0---|-----5-----5-----|
|-----------------|-3---------------|-----0-----------|---------------3-|
|-----2-------2---|-----2-------2---|-------------2---|-----2-------2---|
|-0---------------|-0---------------|-2---------------|-0---------------|
|---------0-------|---------0-------|---------4-------|---------0-------|
|-----------------|-----------------|-----------------|-----------------|
  watched     the   ripples           run            away
  bye          goodbye           goodbye           goodbye

                                    .................................
  , . , . , . , .   , . , . , . , . : , . , . , . , .               :
|-5---5-----5-----|-----------------|-----------------| Play this   :
|-----------------|-----3-------3---|-----3-----3---2-| bar on the  :
|-----2-------2---|-0---------------|-------0---------| second time :
|-0---------------|-----0-------0---|-----0-------0---| only        :
|---------0-------|---------2-------|---------2-------|             :
|-----------------|-3---------------|-3---------------|             :
           And they never   made a  :...............................:
                                       That's all there


  , . , . , . , .   , . , . , . , .   , . , . , . , .   , . , . , . , .
|-----5-----5-----|-5---5-----5-----|-----2-----------|-------------0---|
|-----------------|-----------------|-------3---------|-------------1---|
|-----2-------2---|-----2-------2---|-----2-------2---|-----0-----------|
|---------2-------|---------2-------|-0-------0-------|-----------------|
|-0---------------|-0---------------|-----------------|-3-------2---0---|
|-----------------|-----------------|-----------------|-----------------|
  sound                     And  the  leaves            that are
  is                        And  the  leaves            that are

                                    To
  , . , . , . , .   , . , . , . , .Coda, . , . , . , .   , . , . , . , .
|-----------------|-----------------||-----5-----5-----|-5---5-----3-----|
|-----3-----0-----|-0h2-------2-----||-----------------|-----------------|
|-----------------|-----2-------2---||-----2-------2---|-----2-------2---|
|-----0-------0---|-----------------||-0---------------|-0---------------|
|---------2-------|-0-------0-------||---------0-------|---------0-------|
|-3---------------|-----------------||-----------------|-----------------|
  green                     turn  to  brown
  green                     turn  to


  , . , . , . , .   , . , . , . , .   , . , . , . , .   , . , . , . , .
|-2---2-----2-----|-2---2-----0-----|-----------------|-----------------|
|-----------------|-----------------|-----------2-----|-3h5---3--p2-----|
|-----2-------2---|-----2-------2---|-------4---------|-------------4---|
|-0---------------|-0---------------|-----4-------4---|-----4-------4---|
|---------0-------|---------0-------|-2---------------|-2---------------|
|-----------------|-----------------|---------2-------|---------2-------|
                            And they  wither  with the wind


  , . , . , . , .   , . , . , . , .   , . , . , . , .   , . , . , . , .
|-----2-----------|-----------------|-----------------|-----------------|
|-----3-------2---|-3h5---3--p2-----|-----------0-----|-2-----2---3-----|
|-----4-----------|-------------4---|-2-----2---------|-----------------|
|-----4-------4---|-----4-------4---|-----2-------2---|-----2-------2---|
|-2---------------|-2---------------|-0---------------|-0---------------|
|---------2-------|---------2-------|---------0-------|---------0-------|
                            And they  crumble in your   hand


  , . , . , . , .   , . , . , . , .
|-0-----0---2-----|-2h3-----2---0----||
|-----------------|-2----------------||
|-----------------|-----------------*||
|-----2-------2---|-----2-------2---*||
|-0---------------|-0----------------||
|---------0-------|---------0--------||


Coda
   , . , . , . , .   , . , . , . , .   , . , . , . , .   , . , . , . , .
||-----------0-----|-2h3---2--p0-----|-----------------|-----------------|
||-----3-----------|-------------3---|-----------2-----|-3h5---3--p2-----|
||-----2-------2---|-----2-------2---|-------4---------|-------------4---|
||-0---------------|-0---------------|-----4-------4---|-----4-------4---|
||---------0-------|---------0-------|-2---------------|-2---------------|
||-----------------|-----------------|---------2-------|---------2-------|
   brown


  , . , . , . , .   , . , . , . , .   , . , . , . , .   , . , . , . , .
|-----------------|-----------------|-0---2p0---------|-----------------||
|-----------0-----|-2-----2---3-----|-----------3-----|-2---------------||
|-2-----2---------|---------------2-|-----------------|-2---------------||
|-----2-------2---|-----2-------2---|-----2-------2---|-----------------||
|-0---------------|-0---------------|-0---------------|-0---------------||
|---------0-------|---------0-------|---------0-------|-----------------||
            
Tabs too difficult? Try these video lessons and learn fast.


comments powered by Disqus
↑ Back to top | Tablatures and chords are parodies/interpretations of the original songs. You may use it for private study, scholarship, research or language learning purposes only