>
 >
I Am A Rock 1

I Am A Rock 1 Guitar Tabs

Simon And Garfunkel - I Am A Rock 1 chords, tabs, tablatures, lyrics

Guitar lessons | Add/correct | Request | Top 50 tabs Artists:  A B C D E F G H I J K L M N O P Q R S T U V W X Y Z 0-9

I Am A Rock 1 Guitar Tabs – Simon And Garfunkel

CD, Sheet music, Poster

Do you like I Am A Rock 1? Share with your friends now
ChordsChords v2Chords v3TabsTabs v2Ukulele
Capo V 
INTRO: 

   G 
e:---------------------------|---------------------------|---------------| 
B:-------------0h1-0h1-0h1p0-|-------------0h1-0h1-0h1p0-|---------------| 
G:---------------------------|---------------------------|---------------| 
D:-------------0h2-0h2-0h2p0-|-------------0h2-0h2-0h2p0-|---------------| 
A:---------------------------|---------------------------|---------------| 
E:-3-----3-3-----------------|-3-----3-3-----------------|-3-----3-3-----| 
                                                                  A winter's 

   G                                             C/G 
e:---------------------------|-----------------|-----------------| 
B:-------------0h1-0h1-0h1p0-|-----------------|-1-----1-----1---| 
G:---------------------------|-----------------|-0-----0-----0---| 
D:-------------0h2-0h2-0h2p0-|-----------------|-----------------| 
A:---------------------------|-----------------|-----------------| 
E:-3-----3-3-----------------|-3-----3-3---3---|-----3-----3-----| 
   day                                     in a  deep and dark 

   G 
e:---------------------------|-----------3-3-3-| 
B:-0-----------0h1-0h1-0h1p0-|-----------0-0-0-| 
G:-0-------------------------|-----------0-0-0-| 
D:-------------0h2-0h2-0h2p0-|-----------0-0-0-| 
A:---------------------------|-----------2-2-2-| 
E:-3-----3-3-----------------|-3-----3-3-3-3-3-| 
 December 

Am   D   C  G 
   I am alone 
Am             Bm     Am               Bm 
Gazing from my window to the streets below 
     Am             C                D 
On a freshly fallen silent shroud of snow 
         G 
I am a rock 
        D G 
I am an island 
           G       C/G                 G 
I've built walls a fortress deep and mighty 
     Am   D   C   G 
That none may penetrate 
  Am               Bm         Am                Bm 
I have no need for friendship friendship causes pain 
     Am                C           D 
It's laughter and it's loving I disdain 
         G 
I am a rock 
        D G 
I am an island 

Don't talk of love well I've heard the word before 
It's sleeping in my memory 
I won't disturb the slumber of feelings that have died 
If I never loved I never would have cried 

I am a rock 
I am an island 

I have my books and my poetry to protect me 
I am shielded in my armor 
Hiding in my room safe within my womb 
I touch no one and no one touches me 

I am a rock 
I am an island 

   C   D   G                 C   D      G 
e:-0---2---3-----3-|-3------^0--^2---|-^3-------------------------| 
B:-1---3---0-----0-|-0------^1--^3---|-^0-----------0h1-0h1-0h1p0-| 
G:-0---2---0-----0-|-0------^0--^2---|-^0-------------------------| 
D:-2---0---0-----0-|-0------^2--^0---|-^0-----------0h2-0h2-0h2p0-| 
A:-3-------2-----2-|-2------^3-------|-^x-------------------------| 
E:---------3-----3-|-3---------------|-^3-----3-3-----------------| 
 a rock feels no pain and an island never cries 

           ritard 
   +   +   +       +           +   +   +   + 
e:---------------------------|-----------------| 
B:-------------0h1-0h1-0h1p0-|-----------------| 
G:---------------------------|-----------------| 
D:-------------0h2-0h2-0h2p0-|-----------------| 
A:---------------------------|-----------------| 
E:-3-----3-3-----------------|-3-----3-3-------| 



Created on February 3, 1998 by Eric Nies





Comments


Popular Simon And Garfunkel tabs & chords
Bridge Over Troubled Waters Chords
So Long Frank Lloyd Wright Chords
The Only Living Boy In New York 4 Chords
The Sounds Of Silence Chords
A Church Is Burning Tabs
Bleecker Street Tabs
Kathy's Song Tabs
The Only Living Boy Tabs
April Come She Will Ukulele
Richard Cory Ukulele


Song lyrics



↑ Back to top | Tablatures and chords are parodies/interpretations of the original songs. You may use it for private study, scholarship, research or language learning purposes only
© 2014 AZChords.com Contact us | Privacy policy | DMCA | Add/correct tabs | Request tabs | Top 50 tabs