>
 >
Tell Me

Tell Me Guitar Tabs

Side A - Tell Me chords, tabs, tablatures, lyrics

Guitar lessons | Add/correct | Request | Top 50 tabs Artists:  A B C D E F G H I J K L M N O P Q R S T U V W X Y Z 0-9

Tell Me Guitar Tabs – Side A

CD, Sheet music, Poster

Do you like Tell Me? Share with your friends now
ChordsChords v2TabsTabs v2Tabs v3Tabs v4Ukulele
Song Title: Tell Me
Band Name: Side A

Great song from one of the best OPM bands ever..

Guitar 1 ~ Standard Tuning (preferably acoustic, capo on 2)
Guitar 2 ~ Standard Tuning (overdrive) ~ For the solo part

Also, see my Guitar Pro version of the song, you'll learn
the song quicker using that software.. ;)

Verse 1:

G         D/F#
There are nights..
     Em           D/F#
When I can't help but cry..
B7/Eb             Em      D      A/C#  D
And I'm wonderin' why you had to leave me..

G   D/F#   Em             D/F#
Why did it have to end so soon?
B7/Eb              Em        D     A/C#  D
When you said that you would never leave me..

[Tab]: (Well at least here's how I play it...)

Guitar 1:
    G        D/F#     Em                 D/F#
e|-------------------------------------------------|
B|--0------0-0------0-0------1----------------3~---|
G|-------0--------0--------0-----0----2-----2------|
D|-----0--------0--------2-----2---2------0--------|
A|-------------------------------------------------|
E|--3--------2--------0-----------------2----------|
    B7/Eb (or B7)  Em     D - C      D
e|---------------------------------------|
B|--------0-----------------------0------|
G|--2---2-----2--0-----2--0----------2~--|
D|----1--------------2------4-2~-----0~--|
A|--2-------2-------------5---3~---------|
E|-----------------0---------------------|

Chorus:

Bm7  - Em
Tell me..
Cadd9       Bm7 - Em
Where did I go wrong?
Cadd9            Bm7  -   Em          Am7
What did I do to make you change your mind..
      D - Cadd9
Completely..
    Bm7 - Em
And I thought..
     Cadd9            Bm7 - Em
This love would never end..
    Cadd9              Bm7  -  Em
But if this love's not ours to have..
    Am7
I'd let it go..
     D        G ~
With your goodbye..

[Tab]: (Again, this is how I play it..)

Guitar 1:
    Bm7          Em         Cadd9           Bm7     Em
e|--------------------------2---3-2---0----------------------|
B|--3------3-----------0~-----------------3-----3---0-----0--|
G|-------2---2-------0--------0-----0---0-----0---0-----0----|
D|-----4-------3---2----------------------------------2------|
A|--2-----------------------3---------------2----------------|
E|---------------0----------------------------------0--------|
    Cadd9           Bm7     Em      Am7             D       Cadd9
e|--2---3-2---0-----------------------------------------2-------0--|
B|----------------3-----3-------0-0---------1-----------3----------|
G|----0-----0---0-----0---0-------------0-------0-0---2---2---0----|
D|----------------------------2-------2---2---2-----0--------------|
A|--3---------------2---------------0-----------------------3------|
E|--------------------------0--------------------------------------|
    Bm7          Em         Cadd9           Bm7     Em
e|--------------------------2---3-2---0----------------------|
B|--3------3-----------0~-----------------3-----3---0-----0--|
G|-------2---2-------0--------0-----0---0-----0---0-----0----|
D|-----4-------3---2----------------------------------2------|
A|--2-----------------------3---------------2----------------|
E|---------------0----------------------------------0--------|
    Cadd9           Bm7        Em     Am7          D    G
e|--2---3-2---0---------5/7-5---------------------^0~--^3~--|
B|----------------3----------------0--0-----1--3--^3~--^3~--|
G|----0-----0---0-----0-------------------0-------^2~--^0~--|
D|-------------------------------2------2--------------^0~--|
A|--3---------------2-----------------0----------------^2~--|
E|-----------------------------0-----------------------^3~--|


Verse 2: (same as Verse 1 chords)

G   D/F#   Em             D/F#
Why did it have to end so soon?
B7/Eb              Em        D     A/C#  D
When you said that you would never leave me..

Chorus:

Bm7  - Em
Tell me..
Cadd9       Bm7 - Em
Where did I go wrong?
Cadd9            Bm7  -   Em          Am7
What did I do to make you change your mind..
      D - Cadd9
Completely..
    Bm7 - Em
And I thought..
     Cadd9            Bm7 - Em
This love would never end..
    Cadd9              Bm7  -  Em
But if this love's not ours to have..
    Am7
I'd let it go..
     D        G ~
With your goodbye..

Guitar Solo:

Solo plays over the chords: 

G | D/F# | Em | D/F#
G | G/B | C | G/B | Am7 | G/B | Am7
E/G# | Am7 | G | D/F# | Em | D ~

Guitar 2: (I exported this from my Guitar Pro version)
   G                               D/F#
   H          E   E   E    E      H          E   E   E    E   
e|------------------------------|------------------------------|
B|--12b~--------L---------------|------------------------------|
G|---------------------14h--16--|--16b~--------L------14h--16--|
D|-----------------14-----------|-----------------14-----------|
A|------------------------------|------------------------------|
E|------------------------------|------------------------------|
  Em                            D/F#    G       Am7     G/B     
                         PM         PM      PM                  
   Q      E   Q     Q     E      E   E   E   E   E   E   E   E   
-----------------------------|----------------------------------|
--14~----14--15--------------|----------14------15------17------|
-------------------14--------|--16--------------------------14--|
-------------------------14--|------14------14------14----------|
-----------------------------|----------------------------------|
-----------------------------|----------------------------------|
  C                            G/B
   H.             E   S   S     H          E   E   E   E   
----------------------------|-------------------------17--|
--17b~------------L--17p-15-|--17b~--------L------15------|
----------------------------|-----------------14----------|
----------------------------|-----------------------------|
----------------------------|-----------------------------|
----------------------------|-----------------------------|
  Am7                             G/B     Am7
   H           Q.        S   S     H.            E   E   
-------------------------------|------------------------|
--17b~--------17b~------17p-15-|--17~------------L------|
-------------------------------|--------------------14--|
-------------------------------|------------------------|
-------------------------------|------------------------|
-------------------------------|------------------------|
  E/G#                         Am7          G     
   H           E  E   E   E      H.               E   S   S  
---------------------14--17--|--17brb~------------L--16h-17-|
--15br~--------L-------------|------------------------------|
------------------x----------|------------------------------|
-----------------------------|------------------------------|
-----------------------------|------------------------------|
-----------------------------|------------------------------|
  D/F#    Em      D ~~
   E   E   E   E   H             W                   W                 
--16--------------------------|-------------------|-------------------|
------17----------15b~--------|--L----------------|--L----------------|
----------14--13--------------|-------------------|-------------------|
------------------------------|-------------------|-------------------|
------------------------------|-------------------|-------------------|
------------------------------|-------------------|-------------------| 


[Repeat Chorus 2x]

The lead parts at the end are easy.. ;) You can
go ahead and figure 'em out.. ;)

Keno Ventolero ~ 2011





Comments


Popular Side A tabs & chords
Forevermore Chords
If Only Chords
Nais Ko Chords
Forevermore 3 Tabs
Hurt Tabs
Just Wanna Be With You Tabs
Tell Me 2 Tabs
Forevemore Ukulele
If Only Ukulele
Tell Me Ukulele


Song lyrics



↑ Back to top | Tablatures and chords are parodies/interpretations of the original songs. You may use it for private study, scholarship, research or language learning purposes only
© 2014 AZChords.com Contact us | Privacy policy | DMCA | Add/correct tabs | Request tabs | Top 50 tabs