» » »

Sick Of It All, No Cure Tabs (ver.1)

Artists:  A B C D E F G H I J K L M N O P Q R S T U V W X Y Z # 

No Cure Tabs (ver.1)

Sick Of It All Tabs
 Rating:
4/5 (4 votes)
No Cure lessons Tabs too difficult? Try these video lessons and learn fast
                 _|Riff1__________________________x3|Riff1.1___________________________
 e|----------------|----------------|----------------|----------------|
 B|----------------|----------------|----------------|----------------|
 G|----------------|----------------|----------------|----------------|
 D|4---4-4-----7-7-|7---7-7-7---7-7-|4---4-4>--------|----------------|
 A|4---4-4-----0-0-|0---0-0-0---0-0-|4---4-4>--------|x/--------------|
 E|2---2-2-----5-5-|5---5-5-5---5-5-|2---2-2>--------|x/--------------|

	X> fade out (natural)

 _|Riff2_______________________________________________________________
 e|----------------|----------------|----------------|----------------|
 B|----------------|----------------|----------------|----------------|
 G|----------------|----------------|----------------|----------------|
 D|----------------|----------------|----------------|----------------|
 A|4---4--(4(4(4-4-|----4--(4(4(4---|9---9---9---9-7-|-----7---7/9----|
 E|4---4--(4(4(4-4-|----4--(4(4(4---|7---7---7---7-5-|-----5---5/7----|
	(x Palm mutted

 _|Riff3_______________________________________________________________
 e|----------------|----------------|----------------|----------------|
 B|----------------|----------------|----------------|----------------|
 G|----------------|----------------|----------------|----------------|
 D|----------------|----------------|----------------|----------------|
 A|4-4-4-4-4-4-4-4-|4-4-4-4-7-------|5-5-5-5-5-5-5-5-|2---2---5-2-----|
 E|2-2-2-2-2-2-2-2-|2-2-2-2-5-------|3-3-3-3-3-3-3-3-|0---0---3-0-----|

 _|Riff3.1_____________________________________________________________
 e|----------------|----------------|----------------|----------------|
 B|----------------|----------------|----------------|----------------|
 G|----------------|----------------|----------------|----------------|
 D|----------------|----------------|----------------|--------5-------|
 A|4-4-4-4-4-4-4-4-|4-4-4-4-7-------|5-5-5-5-5-5-5-5-|2---2---5-------|
 E|2-2-2-2-2-2-2-2-|2-2-2-2-5-------|3-3-3-3-3-3-3-3-|0---0---3-------|

 _|Riff3.2_____________________________________________________________
 e|----------------|----------------|----------------|----------------|
 B|----------------|----------------|----------------|----------------|
 G|----------------|----------------|----------------|----------------|
 D|2---2---5---4---|----------------|2---2---5>------|----------------|
 A|2---2---5---4---|----------------|2---2---5>------|----------------|
 E|0---0---3---2---|----------------|0---0---3>------|----------------|

 _|Riff4.0_____________________________________________________________
 e|----------------|----------------|----------------|----------------|
 B|----------------|----------------|----------------|----------------|
 G|4h--4h--4h--4h--|4h--4h--4h--4h--|4h--4h--4h--4h--|4h--4h--4h--4h--|
 D|4h--4h--4h--4h--|4h--4h--4h--4h--|4h--4h--4h--4h--|4h--4h--4h--4h--|
 A|4h--4h--4h--4h--|4h--4h--4h--4h--|4h--4h--4h--4h--|4h--4h--4h--4h--|
 E|----------------|----------------|----------------|----------------|
	xh Natural harmonic

 _|Riff4.1_____________________________________________________________
 e|----------------|----------------|----------------|----------------|
 B|----------------|----------------|----------------|----------------|
 G|----------------|----------------|----------------|----------------|
 D|------------7---|7----7--7--7--7-|------------9---|9----9--9--9--9-|
 A|5---4-------5---|5----5--5--5--5-|7---5-------7---|7----7--7--7--7-|
 E|3---2--(0---5---|5----5--5--5--5-|5---3--(0---7---|7----7--7--7--7-|

 _|Riff4_______________________________________________________________
 e|----------------|----------------|----------------|----------------|
 B|----------------|----------------|----------------|----------------|
 G|----------------|----------------|----------------|----------------|
 D|----------------|4h--4h--4h------|------------x---|x---x---x---x---|
 A|5---4-------4---|------------4h--|4h--4h--4h--x---|x---x---x---x---|
 E|3---2--(0---2---|----------------|------------x---|x---x---x---x---|
 
 _|____________________________________________________________________
 e|----------------|----------------|----------------|--------0-------|
 B|----------------|----------------|----------------|--------0-------|
 G|----------------|----------------|----------------|--------4-------|
 D|----------------|4h--4h--4h------|------------x---|x---x---5-------|
 A|5---4-------4---|------------4h--|4h--4h--4h--x---|x---x---5-------|
 E|3---2--(0---2---|----------------|------------x---|x---x---3-------|
 
 _|Riff4.1_____________________________________________________________
 e|----------------|----------------|----------------|----------------|
 B|----------------|----------------|----------------|----------------|
 G|----------------|----------------|----------------|----------------|
 D|------------4>--|----------------|----------------|----------------|
 A|5---4-------4>--|----------------|----------------|----------------|
 E|3---2--(0---2>--|----------------|----------------|----------------|
            
Submit corrections

comments powered by Disqus
↑ Back to top | Sick Of It All Tabs for No Cure. Lyrics for acoustic guitar and electric guitar. Tablatures and chords are parodies/interpretations of the original songs. You may use it for private study, scholarship, research or language learning purposes only