>
 >
Aso

Aso Guitar Tabs

Siakol - Aso chords, tabs, tablatures, lyrics

Guitar lessons | Add/correct | Request | Top 50 tabs Artists:  A B C D E F G H I J K L M N O P Q R S T U V W X Y Z 0-9

Aso Guitar Tabs – Siakol

CD, Sheet music, Poster

Do you like Aso? Share with your friends now
TabsTabs v2
-------------------------------------------------------------------------------
                             Siakol - Aso 
-------------------------------------------------------------------------------

Tuning: Standard


INTRO: C-F-G 2X

  C              F   G            C
ako'y may alaga asong mataba
                    F         G             C
bunto't ay mahaba makinis ang mukha
    Am        Em     Dm           C
mahal niya ako mahal ko rin sya
                    F             G                C
kaya kaming dalawa ay laging magkasama

Solo
e|----------------------------------------------------------------------------|
B|------------8h9h10-10----------------------------8h9h10-10------------------|
G|-8h9-11-12------------9h11-11-11-8h9-98h9-11-12-----------9h11-11-11-9h11-8|
D|----------------------------------------------------------------------------|
A|----------------------------------------------------------------------------|
E|----------------------------------------------------------------------------|

       C           F     G             G
kung ako ay aalis siya'y sumusunod
                        F         G           C
sa aking pagbabalik pamawi ng pagod
   Am         Em     Dm         C
mahal niya ako mahal ko rin sya
                       F         G          C
hindi lang sya alaga kaibigan ko pa

Solo
e|----------------------------------------------------------------------------|
B|------------8h9h10-10----------------------------8h9h10-10------------------|
G|-8h9-11-12------------9h11-11-11-8h9-98h9-11-12-----------9h11-11-11-9h11-8|
D|----------------------------------------------------------------------------|
A|----------------------------------------------------------------------------|
E|----------------------------------------------------------------------------|

Am        Em         Dm             C 
kahit hayop ay dapat ring mahalin
    F         C     G         C
lalo't maamo at masunurin
    Am       Em        Dm            C
sila'y alagaan at wag pababayaan
  F         C         G          C
tao at hayop may unawaan

Solo
e|---------------------------------------------------------------------------|
B|-9s12-12-8h10-10-9-9h10-12-12-------------------------8---10-11-11h12-12-12|
G|------------------------------10h12-12-12-11-9--9-9-9---9------------------|
D|---------------------------------------------------------------------------|
A|---------------------------------------------------------------------------|
E|---------------------------------------------------------------------------|

e|-9-8-----------------------------------------------------------------------|
B|-----9h11-11-9h11-11-8-7---------------------------------------------------|
G|---------------------------------------------------------------------------|
D|---------------------------------------------------------------------------|
A|---------------------------------------------------------------------------|
E|---------------------------------------------------------------------------|

        C         F     G                 C
sa aking pag iisa aso ko ang kasama
                   F        G             C
sa aking pagtulog katabi ko sa kama
    Am         Em     Dm         C
mahal niya ako mahal ko rin sya
                    F       G          C
pag lalambing niya aking damang dama

Solo
e|----------------------------------------------------------------------------|
B|------------8h9h10-10----------------------------8h9h10-10------------------|
G|-8h9-11-12------------9h11-11-11-8h9-98h9-11-12-----------9h11-11-11-9h11-8|
D|----------------------------------------------------------------------------|
A|----------------------------------------------------------------------------|
E|----------------------------------------------------------------------------|

        C             F          G               C
pag siya'y binabato aking pinagtatanggol
                    F         G             C 
pag akoy inaaway kanyang tinatahol
    Am        Em     Dm           C
mahal niya ako mahal ko rin sya
                F         G                C
kaibigan tunay sa hirap at ginhawa
    Am     Em        Dm             C
kahit hayop at dapat ding mahalin
    F         C     G         C
lalo't maamo at masunurin
    Am     Em               Dm        C
ngunit minsan ay di mo rin akalain
   F             C                 G     C
ang pangyayari ay nagbabago rin

Solo
e|---------------------------------------------------------------------------|
B|-9s12-12-8h10-10-9-9h10-12-12-------------------------8---10-11-11h12-12-12|
G|------------------------------10h12-12-12-11-9--9-9-9---9------------------|
D|---------------------------------------------------------------------------|
A|---------------------------------------------------------------------------|
E|---------------------------------------------------------------------------|

e|-9-8-----------------------------------------------------------------------|
B|-----9h11-11-9h11-11-8-7---------------------------------------------------|
G|---------------------------------------------------------------------------|
D|---------------------------------------------------------------------------|
A|---------------------------------------------------------------------------|
E|---------------------------------------------------------------------------|

    C               F                 G         C
Kahol sya ng Kahol ang aso ko'y nauulol
                F           G             C
laking gulat ko pati ako ay hinabol
    Am     Em         Dm         C
mahal niya ako mahal ko rin sya
                    F             G             C
kaya ganon nalang ang aking pagtataka
    C           F       G            C

Solo
e|----------------------------------------------------------------------------|
B|------------8h9h10-10----------------------------8h9h10-10------------------|
G|-8h9-11-12------------9h11-11-11-8h9-98h9-11-12-----------9h11-11-11-9h11-8|
D|----------------------------------------------------------------------------|
A|----------------------------------------------------------------------------|
E|----------------------------------------------------------------------------|

ako'y may alaga asong mataba 
                    F         G                 C
bunto't ay mahaba makinis ang mukha
    Am         Em         Dm         C
kinagat niya ako kinagat ko rin sya 
                            F         G         C
ang kawawa kong alaga pulutan ko na

Solo
e|-7h9-7h9-77h9-7h9-77h9-7h9------------------------------------------------|
B|-----------------------------7----------------------------------------------|
G|-------------------------------7s9-9h11-11--8-8-10-11-8-10-11-8-10-11-8-----|
D|----------------------------------------------------------------------------|
A|----------------------------------------------------------------------------|
E|----------------------------------------------------------------------------|





Comments


Popular Siakol tabs & chords
Teka Lang Bass Tabs
Hiling Chords
Kung Chords
Makabagong Panahon Chords
Asahan Mo Tabs
Bakit Ba 1 Tabs
Habang Ang Lahat Tabs
Hindi Mo Ba Alam Tabs
Korni Intro Tabs
Sisa Ukulele


Song lyrics



↑ Back to top | Tablatures and chords are parodies/interpretations of the original songs. You may use it for private study, scholarship, research or language learning purposes only
© 2014 AZChords.com Contact us | Privacy policy | DMCA | Add/correct tabs | Request tabs | Top 50 tabs