» » »

Showbread, Welcome To The Plainfield Tobe Hooper Tabs (ver.1)

Artists:  A B C D E F G H I J K L M N O P Q R S T U V W X Y Z # 

Welcome To The Plainfield Tobe Hooper Tabs (ver.1)

Showbread Tabs
 Rating:
4.6/5 (10 votes)
Welcome To The Plainfield Tobe Hooper lessons Tabs too difficult? Try these video lessons and learn fast
1
                This is my first tab, but i'm pretty sure i'm right...
...1st
-----------------------|
-----------------------|
-------8888-7777-5555--|
--7777-8888-7777-5555--|x4 (guitar 1)
--7777-6666-5555-3333--|
--5555-----------------|

...during the solo
----------------------------------------------|
----------------------------------------------|
----------------------------------------------|
--7777-5555-7777-5555-7777-5555-7777-5555-7~--|
--7777-5555-7777-5555-7777-5555-7777-5555-7~--|
--5555-3333-5555-3333-5555-3333-5555-3333-5~--|

...the 1st solo
------------------------------------------------|
--10*-------------------------------------------|
---9*--8b-6h8-6h8-6-8----6-89-89-89-89-89-8~\**-|
-----------------8---8--8-----------------------|
------------------------------------------------|
------------------------------------------------|
*(x16 with slow bend up a whole note then back down)
**(bend up a half step and let ring until "reptiles")

...right before chorus
"yea!!!!"
---------------------------------------|
---------------------------------------|
-----------88888888-77777777-55555555--|
--77777777-88888888-77777777-55555555--|
--77777777-66666666-55555555-33333333--|
--55555555-----------------------------|

---------------------------------------|
---------------------------------------|
-----------88888888-77777777-8888-9999-|
--77777777-88888888-77777777-8888-9999-|
--77777777-66666666-55555555-6666-7777-|
--55555555-----------------------------|

...1st Chorus       "I'll bet..."
...Last Chorus
--------------------[--------------------------------------]
--------------------[--------------------------------------]
--------------------[--------------------------------------]
--7-7-777-5-5-555-2-[22222222-55555555-7777-8888-5555-7777-] x2
--7-7-777-5-5-555-2-[22222222-55555555-7777-8888-5555-7777-]
--5-5-555-3-3-333-0-[00000000-33333333-5555-6666-3333-5555-]


...After Chorus
[---------------------------------]-------|
[---------------------------------]-------|
[---------------------------------]-------|
[--2-22--2-2-22--2-2-22--222-88-7-]-x2-7~-|
[--2-22--2-2-22--2-2-22--222-88-7-]----7~-|
[--0-00--0-0-00--0-0-00--000-66-5-]----5~-|

...2nd verse
-----------------------------|
-----------------------------|
--7-8---8-7---7-8---8-7--7~--|
--7-8---8-7---7-8---8-7--7~--|
--5-6---6-5---5-6---6-5--5~--|
-----------------------------|

...Then
-----------------------|
-----------------------|
-------8888-7777-5555--|
--7777-8888-7777-5555--|x4
--7777-6666-5555-3333--|
--5555-----------------|

...Chorus 2        "I'll Bet"
-----------------------|
-----------------------|
-----------------------|
--7-7-777-5-5-555-2~---|
--7-7-777-5-5-555-2~---|
--5-5-555-3-3-333-0~---|

...During the Solo
-----------------------------------------|
-----------------------------------------|
-----------------------------------------|
--7777-5555-7777-5555-7777-5555-77777777-|x4 (guitar 1)
--7777-5555-7777-5555-7777-5555-77777777-|
--5555-3333-5555-3333-5555-3333-55555555-|

...The solo
[-8p5----]--------------------------------------|
[----h8p5]-(x4)---------------------------------|
[--------]----8b-6h8-6h8--6-8-----6-8-10-8\6----|
[--------]---------------8---8---8--------------| (guitar 2)
[--------]--------------------------------------|
[--------]--------------------------------------|

------------------------------------------------|
--10-1010-12-13-15-13-12-10--10-1010-12-13-17v--|
------------------------------------------------|
------------------------------------------------|
------------------------------------------------|
------------------------------------------------|

---------------------------------18h21p18------18h21p18-------------|
--16-17-16-17-16-17-16-17-16-17----------h21p18--------h21p18-21-18-|

-------------------------------------------|
--16-18-16-14--14-16----14-16-18-16-14-----|
-------------15------15---------------15\--|
-------------------------------------------|
-------------------------------------------|
-------------------------------------------|

...Last Chorus
--------------------[--------------------------------------]
--------------------[--------------------------------------]
--------------------[--------------------------------------]
--7-7-777-5-5-555-2-[22222222-55555555-7777-8888-5555-7777-] x2
--7-7-777-5-5-555-2-[22222222-55555555-7777-8888-5555-7777-]
--5-5-555-3-3-333-0-[00000000-33333333-5555-6666-3333-5555-]

...Outro
---------------------------------|
---------------------------------|
---------------------------------|
--2-22--2-2-22--2-2-22--222-88-7-| x2
--2-22--2-2-22--2-2-22--222-88-7-|
--0-00--0-0-00--0-0-00--000-66-5-|

[--------------------------]-------|
[--------------------------]-------|
[--------------------------]-------|
[--22--2-22--2-22--22-88-7-]-x2-2~-|
[--22--2-22--2-22--22-88-7-]----2~-|
[--00--0-00--0-00--00-66-5-]----0~-|

...Fin

That should be right...
            
Submit corrections

comments powered by Disqus
↑ Back to top | Showbread Tabs for Welcome To The Plainfield Tobe Hooper. Lyrics for acoustic guitar and electric guitar. 1 Tablatures and chords are parodies/interpretations of the original songs. You may use it for private study, scholarship, research or language learning purposes only