» » »

Showbread, Welcome To The Plainfield Tobe Hooper Bass tabs (ver.1)

Artists:  A B C D E F G H I J K L M N O P Q R S T U V W X Y Z # 

Welcome To The Plainfield Tobe Hooper Bass tabs (ver.1)

Showbread Tabs
Rating:
5/5 (1 vote)
Welcome To The Plainfield Tobe Hooper lessons Tabs too difficult? Try these video lessons and learn fast
                -----------------------------------------------------------------------------
-----------------------------------------------------------------------------


Tuning:standard

	(0:13)play fast
G|---------------------------------------------------------------------------|
D|---------------------------------------------------------------------------|
A|-------6666-5555-3333------------------------------------------------------|
E|--5555---------------------------------------------------------------------|

	(0:22)play twice
G|---------------------------------------------------------------------------|
D|---------------------------------------------------------------------------|
A|---------------------------------------------------------------------------|
E|--55-33-555-33-------------------------------------------------------------|

	(0:36)
G|---------------------------------------------------------------------------|
D|---------------------------------------------------------------------------|
A|---------------------------------------------------------------------------|
E|-5-5-5-5-5-5-5-5-10-10-10-10-10-10-10-10-8-8-8-8-8-8-8-8-5-5-5-5-5-5-5-5---|

	(0:45)
G|---------------------------------------------------------------------------|
D|---------------------------------------------------------------------------|
A|-----------------6-6-6-6-6-6-6-6-5-5-5-5-5-5-5-5---------------------------|
E|-5-5-5-5-5-5-5-5---------------------------------3-3-3-3-3-3-3-3-----------|

G|---------------------------------------------------------------------------|
D|---------------------------------------------------------------------------|
A|-----------------6-6-6-6-6-6-6-6-5-5-5-5-5-5-5-5-6-6-6-6-7-7-7-7-----------|
E|-5-5-5-5-5-5-5-5-----------------------------------------------------------|

	Pre Chorus (1:03)
G|---------------------------------------------------------------------------|
D|---------------------------------------------------------------------------|
A|---------------------------------------------------------------------------|
E|-5-5-555-3-3-333-----------------------------------------------------------|

	(1:05)CHORUS
G|---------------------------------------------------------------------------|
D|---------------------------------------------------------------------------|
A|---------------------------------------------------------------------------|
E|-------0-0-0-0-0-0-000-3-3-3-3-3-3-333-5-5-555-6-6-666-3-3-333-6-6-666-----|


	(1:24)Play twice
G|---------------------------------------------------------------------------|
D|---------------------------------------------------------------------------|
A|---------------------------------------------------------------------------|
E|-0-0--0-0-0--0-0-0--0-0-5-6-5----------------------------------------------|

	(1:42)play till (2:01)
G|---------------------------------------------------------------------------|
D|---------------------------------------------------------------------------|
A|------6666-5555-3333-------------------------------------------------------|
E|-5555----------------------------------------------------------------------|

	(2:01)
G|---------------------------------------------------------------------------|
D|---------------------------------------------------------------------------|
A|---------------------------------------------------------------------------|
E|-5-5-555-3-3-333-0~--------------------------------------------------------|

	(2:15) play through entire guitar solo
G|---------------------------------------------------------------------------|
D|---------------------------------------------------------------------------|
A|---------------------------------------------------------------------------|
E|--55-33-555-33-------------------------------------------------------------|

	(2:34)
G|---------------------------------------------------------------------------|
D|---------------------------------------------------------------------------|
A|---------------------------------------------------------------------------|
E|-5-5-555-3-3-333-----------------------------------------------------------|

	(2:36)play twice
G|---------------------------------------------------------------------------|
D|---------------------------------------------------------------------------|
A|---------------------------------------------------------------------------|
E|-------0-0-0-0-0-0-000-3-3-3-3-3-3-333-5-5-555-6-6-666-3-3-333-6-6-666-----|

	(2:52)till end
G|---------------------------------------------------------------------------|
D|---------------------------------------------------------------------------|
A|---------------------------------------------------------------------------|
E|-0-0--0-0-0--0-0-0--0-0-5-6-5----------------------------------------------|




| /  slide up
| \  slide down
| h  hammer-on
| p  pull-off
| ~  vibrato
| +  harmonic
| x  Mute note
===============================================================================
            

comments powered by Disqus
↑ Back to top | Showbread Bass for Welcome To The Plainfield Tobe Hooper. Lyrics for acoustic guitar and electric guitar. Tablatures and chords are parodies/interpretations of the original songs. You may use it for private study, scholarship, research or language learning purposes only