>
 >
Civilized Man

Civilized Man Bass Tabs

Shelter - Civilized Man chords, tabs, tablatures, lyrics

Guitar lessons | Add/correct | Request | Top 50 tabs Artists:  A B C D E F G H I J K L M N O P Q R S T U V W X Y Z 0-9

Civilized Man Bass Tabs – Shelter

CD, Sheet music, Poster

Do you like Civilized Man? Share with your friends now
Bass TabsBass Tabs v2
Band: Shelter


 Intro: 4x - ThE dRuMs CoMe bY tHe FoUrTh TiMe
G---------------------------------------------
D---------------------------------------------
A--2h4-4-4-4-4-4-2----------------------------
E------------------2--2-2-2-0-0---------------


 0:10 - Part A: 7x
G---------------------------------------------
D---------------------------------------------
A--2h4-4-4-4-4-4-2----------------------------
E------------------2--2-2-2-0-0---------------


 0:26 - Part B:
G---------------------------------------------
D-------------------2--2--4--4----------------
A--2h4-4-4-4-4-4-2----------------------------
E---------------------------------------------


 0:29 - Part A: 3x

 
 0:36 - Part C:
G---------------------------------------------
D---------------------------------------------
A--2h4-4-4-4x---------------------------------
E---------------------------------------------


 0:38 - Part D: 2x
G-------------------------------------------------------------------
D-------------------------------------------------------------------
A--4-4-4---4--4---2-2-2---2--2--------------------------------------
E---------------------------------0-0-0---0--0---0-2-0-2-0-2-0-2----


 0:58 - Part A: 3x


 1:05 - Part B


 1:07 - Part A: 3X


 1:14 - Part C


 1:17 - Part D: 2x


 1:36 - Part E:
G---------------------------------------------
D---------------------------------------------
A--4-4-4x----4-4-4x----4-4-4x----4-4-4x-------
E---------------------------------------------


 1:46 - Part F: 4x
G---------------------------------------------
D---------------------------------------------
A--4-4-4-2-----------2------------------------
E----------0--0-0--2--------------------------


 1:56 - Part G:
G-------------------------------------------------------------------------
A------------------4-2-----------------4-2-------------------4-2----------
D--4-4-2h4-2h4-2h4-----4-2h4-2h4-2h4-4-----4-4-2h4-2h4-2h4-4-----4x-------
E-------------------------------------------------------------------------


 2:05 - Part A: 4x


 2:15 - Part D: 2x


 2:34 - Part H / End
G------------------------------
D------------------------------
A--4-4-4\----------------------
E------------------------------





Comments


Popular Shelter tabs & chords
Here We Go Bass Tabs
Here We Go 1 Bass Tabs
Letter To A Friend Bass Tabs
Mantra Bass Tabs
Appreciation Tabs
Beyond Planet Earth Tabs
Cold Tabs
Return To Eden Tabs
Revealed In Reflection Tabs
The Value Tabs


Song lyrics



↑ Back to top | Tablatures and chords are parodies/interpretations of the original songs. You may use it for private study, scholarship, research or language learning purposes only
© 2014 AZChords.com Contact us | Privacy policy | DMCA | Add/correct tabs | Request tabs | Top 50 tabs