» » »

Sevendust, Angel's Son Tabs (ver.1)

Artists:  A B C D E F G H I J K L M N O P Q R S T U V W X Y Z # 

Angel's Son Tabs (ver.1)

Sevendust Tabs
Rating:
0/5 (0 votes)
Angel's Son lessons Tabs too difficult? Try these video lessons and learn fast
                "Angels Son"   Beautiful song. 
The tunung is from low to high C#-G#-C#-F#-B-C#
All the parts are here and easy to put in order while playing
to the cd. 

Intro
C#--------0------------0-------|------0-------------0----
B---------0------------0-------|------0-------------0----
F#-----5-----5-----5-------5---|---5-----5-------5-----5-
C#-----------------------------|-------------------------
G#--3-----------5--------------|-------------------------
C#-----------------------------|-3-----------5-----------

C#---------0------0-----0-----
B----------0------0-----0-----
F#-----5------5------5------5-
C#---------------------------- (play this bar 2x)
G#----------------------------
C#--6-------------------------


C#--------0----------0----|------0----------0--------
B---------0----------0----|------0----------0--------
F#-----5-----5----5-----5-|---5-----5-----5----5-----
C#------------------------|--------------------------
G#------------------------|--------------------------
C#--0---------------------|-3------------------------


C#--------0----0-----0-----|---0--
B---------0----0-----0-----|---0--
F#-----5-----5----5--------|---5-- (let ring)
C#-------------------------|---0--
G#--3----------------------|------
C#-----------------------6-|------

Intro (cont'd), also used in verses
C#-----------0------0-----0-----0-|---------0----0-----0-------0-
B---------------------------------|------------------------------
F#------4-5------5-----4-----2----|-2-2---2----2----0------2-3---
C#--------------------------------|-0-0--------------------------
G#--0-0---------------------------|-x-x--------------------------
C#--0-0---------------------------|-4-4--------------------------


C#-----------0-----0-------0-----0-|-----------0-----0-----0------0-
B----------------------------------|--------------------------------
F#--3-3---3-----3-----3-5-----3----|--2-2---2-----2-----0-----------
C#--0-0----------------------------|--0-0----------------------4----
G#--x-x----------------------------|--x-x---------------------------
C#--5-5----------------------------|--4-4---------------------------


Pre-Chorus (you can figure rhythm)
C#--0--------|-0--------|-4--------|-5--------
B---0--------|-0--------|-0--------|-0--------
F#--5--------|-7--------|-2--------|-3-------- (repeat 2x)
C#--0--------|-0--------|-0--------|-0-------- 
G#--3--------|-5--------|-x--------|-x--------
C#-----------|----------|-4--------|-5--------
 "You were fighting..."


Chorus (you can figure rhythm)
C#--0---------|-0------0---0---|-0------
B---0---------|-0------0---0---|-0------
F#--11--------|-11-----12--14--|-10----- (last bar 2x)
C#--0---------|-0------0---0---|-8------
G#--9---------|-9------10--12--|-8------
C#------------|----------------|-8------
"One last song...     given to an angel's son."


C#--0---------------|-5-------
B---0---------------|-0-------
F#--2---------------|-3------- (repeat 2x)
C#--0---------------|-0-------
G#--x---------------|-x-------
C#--4---------------|-5-------
 "As soon as you were gone."

Outro
C#-------0---------0---------0----------0-------0--
B--------0---------0---------0----------0-------0--
F#-----5---5-----5--------9-----11----------11--10-
C#----------------------------------------------8--
G#--3---------5--------7------------9-----------8--
C#----------------------------------------------8--
            
Submit corrections

comments powered by Disqus
↑ Back to top | Sevendust Tabs for Angel's Son. Lyrics for acoustic guitar and electric guitar. Tablatures and chords are parodies/interpretations of the original songs. You may use it for private study, scholarship, research or language learning purposes only