» » »

Serial Joe, Mistake Tabs (ver.1)

Artists:  A B C D E F G H I J K L M N O P Q R S T U V W X Y Z # 

Mistake Tabs (ver.1)

Serial Joe Tabs
 Rating:
4/5 (6 votes)
Mistake lessons Tabs too difficult? Try these video lessons and learn fast
1
                Serial Joe, Mistake

Band:   Serial Joe

Tuning: Standard

Keys:
  X   mute string
 PM_  palm mute
  *   kill note
 / \  slide

Note:   Here is the best version of Mistake by Serial  Joe. We know the solo is
        100% correct and the rest seems close enough. try it out.

Intro:
|------------------------------------|
|------------------------------------|
|-------------------4/6-6-6-666------|
|-----2-2------2-22-4/6-6-6-666-66-6-|
|-2-2-2-222-22-2-22-2/4-4-4-444-66-6-|
|-0-0-0--00-00-0-00-------------44-4-|
  PM_    PM___

Chorus:
|---------------------------------------|
|---------------------------------------|
|-------------------4/6-6-6-666---------|
|-2-2-2-222-22-2-22-4/6-6-6-666-66-6-66-|
|-2-2-2-222-22-2-22-2/4-4-4-444-66-6-66-|
|-0-0-0--00-00-0-00-------------44-4-44-|

Verse:
(guitar 1)                            |------------------------------------|-----| 
|------------------------------------|-----| 
|-------------------4/6-6-6-666------|-----| 
|-----2-2------2-22-x---x-x-xxx-66-6-|-----|
|-2-2-2-222-22-2-22-2/4-4-4-444-xx-x-|-----|
|-0-0-0--00-00-0-00-------------44-4-|-2-0-|
  PM_    PM___

(guitar 2)
|------------------------------------|
|------------------------------------|
|-------------------4/6-6-6-666------|
|-----2-2------2-22-4/6-6-6-666-66-6-|
|-2-2-2-222-22-2-22-2/4-4-4-444-66-6-|
|-0-0-0--00-00-0-00-------------44-4-|
  PM_    PM___

Solo:
|-------------------------------------------------|
|-------------------------------------------------|
|---9-99----999-9/11-11-11-11/13-13-13\11-11-1111-|
|---x-xx----xxx-x-----x--x--x-----x--x-----x--x-x-|
|---7-77-77-777-7/-9--9--9--9/11-11-11\-9--9--9-9-|
|-0------00---------------------------------------|

|-------------------------------------------------|
|-------------------------------------------------|
|---9-99----999-9/11-11-11-11/13-13-13\11-11-1111-|
|---x-xx----xxx-x-----x--x--x-----x--x-----x--x-x-|
|---7-77-77-777-7/-9--9--9--9/11-11-11\-9--9--9-9-|
|-0------00---------------------------------------|

|-------------------------------------------------|
|-------------------------------------------------|
|---9-99----999-9/11-11-11-11/13-13-13\11-11-1111-|
|---x-xx----xxx-x-----x--x--x-----x--x-----x--x-x-|
|---7-77-77-777-7/-9--9--9--9/11-11-11\-9--9--9-9-|
|-0------00---------------------------------------|

|-------------------------------------------------|
|-------------------------------------------------|
|---9-99----999-9/11---------/13-13-13\11-11-1111-|
|---x-xx----xxx-x-----------------x--x-----x--x-x-|
|---7-77-77-777-7/-9---------/11-11-11\-9--9--9-9-|
|-0------00---------------------------------------|

        After solo play chorus 8 times with guitar 2(clean)
        after the chorus has been played through 4 times.

Something like this: (guitar 2)          |--------------------------------|     
|--------------------------------|
|----1---1-11-1------6-----------| 
|----2-2-2-22-2----6---6-----6---| 
|--2-2-2-2--2-2--4---------6---6-|0------------------------4-------| 

|---|
|---|
|---|
|-2-|
|-2-|
|-0-|
            
Submit corrections

comments powered by Disqus
↑ Back to top | Serial Joe Tabs for Mistake. Lyrics for acoustic guitar and electric guitar. 1 Tablatures and chords are parodies/interpretations of the original songs. You may use it for private study, scholarship, research or language learning purposes only