» » »

Serial Joe, Face Down Tabs (ver.2)

Artists:  A B C D E F G H I J K L M N O P Q R S T U V W X Y Z # 

Face Down Tabs (ver.2)

Serial Joe Tabs
 Rating:
4/5 (4 votes)
Face Down lessons Tabs too difficult? Try these video lessons and learn fast
                Intro:
E|----------------------------------------------------------------------------------
B|----------------------------------------------------------------------------------
G|----------------------------------------------------------------------------------
D|---0----2----4------0----4-----0-----2-------5-----0-----5------------------------
A|----------------------------------------------------------------------------------
E|----------------------------------------------------------------------------------


Verse:
E|-----------------------------------------------------------------------------------
B|-----5----4---5----4---5-----4----5-----4------------------------------------------
G|-----5----4---5----4---5-----4----5-----4----3-------------------------------------
D|-----4----2---4----2---4-----2----4-----2----3-------------------------------------
A|---------------------------------------------2-------------------------------------
E|-----------------------------------------------------------------------------------

Chorus:

E|-----------------------------------------------------------------------------------
B|-----------------------------------------------------------------------------------
G|-----------------------------------------------------------------------------------
D|----3----5----3----2----3----5----3----2----3----5----4---2------------------------
A|----3----5----3----2----3----5----3----2----3----5----4---2------------------------
E|----2----4----2----1----2----4----2----1----2----3----3---1------------------------

There that's all very simple song by my standards hehehe
            
Submit corrections

comments powered by Disqus
↑ Back to top | Serial Joe Tabs for Face Down. Lyrics for acoustic guitar and electric guitar. Tablatures and chords are parodies/interpretations of the original songs. You may use it for private study, scholarship, research or language learning purposes only