» » »

Sequoyah Prep School, About Rain Tabs (ver.1)

Artists:  A B C D E F G H I J K L M N O P Q R S T U V W X Y Z # 

About Rain Tabs (ver.1)

Sequoyah Prep School Tabs
 Rating:
4.3/5 (6 votes)
About Rain lessons Tabs too difficult? Try these video lessons and learn fast
1
                Capo 4th Fret...

Chord's

Sounds Like Throughout The Whole Song

 Am  F  C  G

2nd Guitar/Paino starts after first chours thru most of the song

e -12--9--7--7-9-12------------|
B -----------------------------|
G -----------------------------|
D -----------------------------|
A -----------------------------|
E -----------------------------|

After 2nd Chorus 2nd Guitar/Paino "Chords" Comes in Just Strum the Chords

 Am  F  C  G

Another 2nd Guitar/Paino Part Comes Into Play Durning 3rd Chorus For Awhile
e --7--------------------------|
B -----10--9--7--5--10--9--?5?-|
G -----------------------------|
D -----------------------------|
A -----------------------------|
E -----------------------------|

After 3rd Chorus 2nd Guitar (Distortion) [Strum Once?]
e -----------------------------|
B -----------------------------|
G -2-----5---------------------|
D -2--3--5--5------------------|
A -0--3--3--5------------------|
E ----1-----3------------------|

And The Last Part of the 2nd Guitar/Paino x2
e --7-----7------------------------------------------------|
B --------------10-----10-----9-----9-----7-----7h9--------|
G -----9-----9------9------9-----9-----9-----9-------------|
D ---------------------------------------------------------|
A ---------------------------------------------------------|
E ---------------------------------------------------------|

e ----------------------------7-----7----------------------|
B --9-----9-----10-----10-----------------7-----7----------|
G -----9-----9------9------9-----9-----9-----9-------------|
D ---------------------------------------------------------|
A ---------------------------------------------------------|
E ---------------------------------------------------------|


Then After That It Just Turns Into Chord's with Hammer Ons With
Another Little 2nd Guitar/Paino Part listen Close;)
e --------------7----------------|
B --7--9--10-9----9-10--7--9-10--|
G -------------------------------|
D -------------------------------|
A -------------------------------|
E -------------------------------|

That's All Of It I Think
Zack
            
Submit corrections

comments powered by Disqus
↑ Back to top | Sequoyah Prep School Tabs for About Rain. Lyrics for acoustic guitar and electric guitar. 1 Tablatures and chords are parodies/interpretations of the original songs. You may use it for private study, scholarship, research or language learning purposes only