» » »

About Rain Chords (ver.1)

Artists:  A B C D E F G H I J K L M N O P Q R S T U V W X Y Z # 

About Rain Chords (ver.1)

Sequoyah Prep School
Rating:
5/5 (4 votes)

Hard to play? Try these video lessons and learn fast.
                this is an awesome song to play to a girl.
standard- capo 4th fret

Am  F  C  G


if you have no capo try this one out


e ---0-------------------------|
B ---5---------9----4----------|
G ---6----6----9----4----------|
D ---6----7----9----4----------|
A ---4----7----7----2----------|
E ---x----5----x----x----------|


or if thats to much finger stretching for you

e -----------------------------|
B -----------------------------|
G ---6---------9----4----------|
D ---6----7----9----4----------|
A ---4----7----7----2----------|
E ---x----5----x----x----------|


Lyrics:

I hope you like dancing in the rain, I'll spin you around and pull you back to me. I 
am glad you wore that dress, it reminds me of the night that we first met. Don't you love 
evenings in July, staring at you, with my blue eyes? We could be fine.
            
Hard to play? Try these video lessons and learn fast. | Correct




comments powered by Disqus
↑ Back to top | Tablatures and chords are parodies/interpretations of the original songs. You may use it for private study, scholarship, research or language learning purposes only