» » »

Selena Gomez, Kiss And Tell Tabs (ver.2)

Artists:  A B C D E F G H I J K L M N O P Q R S T U V W X Y Z # 

Kiss And Tell Tabs (ver.2)

Selena Gomez Tabs
Rating:
0/5 (0 votes)
Kiss And Tell lessons Tabs too difficult? Try these video lessons and learn fast
                Selena Gomez & The Scene - Kiss and Tell

Standard Tuning

Listen to the Song for strumming pattern

INTRO
e|-----------------------------|
B|-----------------------------|
G|-----------------------------|
D|---------------5---7---------| that part is repeated a lot
A|----------7------------------|
E|---5--5------5---------------|

e|-----------------------------|
B|-----------------------------|
G|-----------------------------|
D|-------2/5---5---7-----------| that part is repeated a lot
A|--0-0------------------------|
E|-----------------------------|

CHORUS
e|--------------------------------------------------------------|
B|--------------------------------------------------------------|
G|----------------------------------12----10-----7--------------|
D|--------7----------7--------10----12----10-----7--------------| 2x
A|----5h7-7------5h7-7----5h7/10----10----8------5--------------|
E|--5-----5----5-----5---5----8---------------------------------|

POST CHORUS
e|--------------------------------------|
B|--------------------------------------|
G|--------------------------------------| 4x
D|---------------5----7-----------------|
A|-------7------------------------------|
E|---5-------5--------------------------|

BRIDGE
e|------------------------------------------|
B|------------------------------------------|
G|-----9-8----------------7-8-9-------------|
D|----------10-9---7-9-10-------------------| 3x
A|---0--------------------------------------|
E|------------------------------------------|

REPEAT CHORUS

OUTRO
e|-------------------------------|
B|-------------------------------|
G|-------------------------------|
D|------------5--7---------------| 8x
A|------7------------------------|
E|---5-----5---------------------|
            
Submit corrections

comments powered by Disqus
↑ Back to top | Selena Gomez Tabs for Kiss And Tell. Lyrics for acoustic guitar and electric guitar. Tablatures and chords are parodies/interpretations of the original songs. You may use it for private study, scholarship, research or language learning purposes only