» » »

Selena Gomez, A Year Without Rain Tabs (ver.2)

Artists:  A B C D E F G H I J K L M N O P Q R S T U V W X Y Z # 

A Year Without Rain Tabs (ver.2)

Selena Gomez Tabs
 Rating:
4/5 (4 votes)
A Year Without Rain lessons Tabs too difficult? Try these video lessons and learn fast
1
                -------------------------------------------------------------------------------
                             A YEAR WITHOUT RAIN - Selena Gomez
-------------------------------------------------------------------------------

Tuning: Standard


VERSE 1:
   
   D                       Am              Em              G
e|-10-10-10-10-10-10-10-10-5-5-5-5-5-5-5-5-7-7-7-7-7-7-7-7-7-7-7-7-7-7-7-7---|
B|-7--7--7--7--7--7--7--7--5-5-5-5-5-5-5-5-8-8-8-8-8-8-8-8-8-8-8-8-8-8-8-8---|
G|-7--7--7--7--7--7--7--7--5-5-5-5-5-5-5-5-9-9-9-9-9-9-9-9-7-7-7-7-7-7-7-7---|
D|-7--7--7--7--7--7--7--7--7-7-7-7-7-7-7-7-9-9-9-9-9-9-9-9-5-5-5-5-5-5-5-5---|x4
A|-------------------------7-7-7-7-7-7-7-7-7-7-7-7-7-7-7-7-------------------|
E|-------------------------5-5-5-5-5-5-5-5-----------------------------------|


CHORUS:

   D                 Am          Em          G
e|-10-10-10-10-10-10-5-5-5-5-5-5-7-7-7-7-7-7-7-7-7-7-7-7---------------------|
B|-7--7--7--7--7--7--5-5-5-5-5-5-8-8-8-8-8-8-8-8-8-8-8-8---------------------|
G|-7--7--7--7--7--7--5-5-5-5-5-5-9-9-9-9-9-9-7-7-7-7-7-7---------------------|
D|-7--7--7--7--7--7--7-7-7-7-7-7-9-9-9-9-9-9-5-5-5-5-5-5---------------------|x3
A|-------------------7-7-7-7-7-7-7-7-7-7-7-7---------------------------------|
E|-------------------5-5-5-5-5-5---------------------------------------------|


   D                 Am          Em          G
e|-10-10-10-10-10-10-5-5-5-5-5-5-7-7-7-7-7-7-7-7-7-7-------------------------|
B|-7--7--7--7--7--7--5-5-5-5-5-5-8-8-8-8-8-8-8-8-8-8-------------------------|
G|-7--7--7--7--7--7--5-5-5-5-5-5-9-9-9-9-9-9-7-7-7-7-------------------------|
D|-7--7--7--7--7--7--7-7-7-7-7-7-9-9-9-9-9-9-5-5-5-5-------------------------|
A|-------------------7-7-7-7-7-7-7-7-7-7-7-7---------------------------------|
E|-------------------5-5-5-5-5-5---------------------------------------------|


VERSE 2:
   
   D                       Am              Em              G
e|-10-10-10-10-10-10-10-10-5-5-5-5-5-5-5-5-7-7-7-7-7-7-7-7-7-7-7-7-7-7-7-7---|
B|-7--7--7--7--7--7--7--7--5-5-5-5-5-5-5-5-8-8-8-8-8-8-8-8-8-8-8-8-8-8-8-8---|
G|-7--7--7--7--7--7--7--7--5-5-5-5-5-5-5-5-9-9-9-9-9-9-9-9-7-7-7-7-7-7-7-7---|
D|-7--7--7--7--7--7--7--7--7-7-7-7-7-7-7-7-9-9-9-9-9-9-9-9-5-5-5-5-5-5-5-5---|x4
A|-------------------------7-7-7-7-7-7-7-7-7-7-7-7-7-7-7-7-------------------|
E|-------------------------5-5-5-5-5-5-5-5-----------------------------------|


CHORUS:

   D                 Am          Em          G
e|-10-10-10-10-10-10-5-5-5-5-5-5-7-7-7-7-7-7-7-7-7-7-7-7---------------------|
B|-7--7--7--7--7--7--5-5-5-5-5-5-8-8-8-8-8-8-8-8-8-8-8-8---------------------|
G|-7--7--7--7--7--7--5-5-5-5-5-5-9-9-9-9-9-9-7-7-7-7-7-7---------------------|
D|-7--7--7--7--7--7--7-7-7-7-7-7-9-9-9-9-9-9-5-5-5-5-5-5---------------------|x3
A|-------------------7-7-7-7-7-7-7-7-7-7-7-7---------------------------------|
E|-------------------5-5-5-5-5-5---------------------------------------------|


   D                 Am          Em          G
e|-10-10-10-10-10-10-5-5-5-5-5-5-7-7-7-7-7-7-7-7-7-7-------------------------|
B|-7--7--7--7--7--7--5-5-5-5-5-5-8-8-8-8-8-8-8-8-8-8-------------------------|
G|-7--7--7--7--7--7--5-5-5-5-5-5-9-9-9-9-9-9-7-7-7-7-------------------------|
D|-7--7--7--7--7--7--7-7-7-7-7-7-9-9-9-9-9-9-5-5-5-5-------------------------|
A|-------------------7-7-7-7-7-7-7-7-7-7-7-7---------------------------------|
E|-------------------5-5-5-5-5-5---------------------------------------------|



BRIDGE:
 
   C  D  Bm Em
e|-8--10-7--7----------------------------------------------------------------|
B|-8--7--7--8----------------------------------------------------------------|
G|-9--7--7--9----------------------------------------------------------------|
D|-10-7--9--9----------------------------------------------------------------|
A|-10----9--7----------------------------------------------------------------|
E|-8-----7-------------------------------------------------------------------|

    C                 D                 Bm          Em
e|--8--8--8--8--8--8--10-10-10-10-10-10-7-7-7-7-7-7-7-7-7-7-7-7--------------|
B|--8--8--8--8--8--8--7--7--7--7--7--7--7-7-7-7-7-7-8-8-8-8-8-8--------------|
G|--9--9--9--9--9--9--7--7--7--7--7--7--7-7-7-7-7-7-9-9-9-9-9-9--------------|
D|--10-10-10-10-10-10-7--7--7--7--7--7--9-9-9-9-9-9-9-9-9-9-9-9--------------|x3
A|--10-10-10-10-10-10-------------------9-9-9-9-9-9-7-7-7-7-7-7--------------|
E|--8--8--8--8--8--8--------------------7-7-7-7-7-7--------------------------|

   D  Am Em G
e|-10-5--7--7----------------------------------------------------------------|
B|-7--5--8--8----------------------------------------------------------------|
G|-7--5--9--7----------------------------------------------------------------|
D|-7--7--9--5----------------------------------------------------------------|
A|-7--7--7-------------------------------------------------------------------|
E|----5----------------------------------------------------------------------|


CHORUS:

   D                 Am          Em          G
e|-10-10-10-10-10-10-5-5-5-5-5-5-7-7-7-7-7-7-7-7-7-7-7-7---------------------|
B|-7--7--7--7--7--7--5-5-5-5-5-5-8-8-8-8-8-8-8-8-8-8-8-8---------------------|
G|-7--7--7--7--7--7--5-5-5-5-5-5-9-9-9-9-9-9-7-7-7-7-7-7---------------------|
D|-7--7--7--7--7--7--7-7-7-7-7-7-9-9-9-9-9-9-5-5-5-5-5-5---------------------|x3
A|-------------------7-7-7-7-7-7-7-7-7-7-7-7---------------------------------|
E|-------------------5-5-5-5-5-5---------------------------------------------|

   D                 Am          Em          G
e|-10-10-10-10-10-10-5-5-5-5-5-5-7-7-7-7-7-7-7-7-7-7-------------------------|
B|-7--7--7--7--7--7--5-5-5-5-5-5-8-8-8-8-8-8-8-8-8-8-------------------------|
G|-7--7--7--7--7--7--5-5-5-5-5-5-9-9-9-9-9-9-7-7-7-7-------------------------|
D|-7--7--7--7--7--7--7-7-7-7-7-7-9-9-9-9-9-9-5-5-5-5-------------------------|
A|-------------------7-7-7-7-7-7-7-7-7-7-7-7---------------------------------|
E|-------------------5-5-5-5-5-5---------------------------------------------|

   D  Am Em G D  Am Em
e|-10-5--7--7-10-5--7--------------------------------------------------------|
B|-7--5--8--8-7--5--8--------------------------------------------------------|
G|-7--5--9--7-7--5--9--------------------------------------------------------|
D|-7--7--9--5-7--7--9--------------------------------------------------------|
A|-7--7--7----7--7--7--------------------------------------------------------|
E|----5----------5-----------------------------------------------------------|
            
Submit corrections

comments powered by Disqus
↑ Back to top | Selena Gomez Tabs for A Year Without Rain. Lyrics for acoustic guitar and electric guitar. 1 Tablatures and chords are parodies/interpretations of the original songs. You may use it for private study, scholarship, research or language learning purposes only