>
 >
Not A Friend Live

Not A Friend Live Guitar Tabs

Sebadoh - Not A Friend Live chords, tabs, tablatures, lyrics

Guitar lessons | Add/correct | Request | Top 50 tabs Artists:  A B C D E F G H I J K L M N O P Q R S T U V W X Y Z 0-9

Not A Friend Live Guitar Tabs – Sebadoh

CD, Sheet music, Poster

Do you like Not A Friend Live? Share with your friends now
Tabs
I've tabbed out a version of Not a Friend that Lou has done on the Dinosaur Jr tour


Top & bottom E strings tuned down a step to D

d|---0--0--0-----9------0------0--------|
B|---3--2--0-----8------0------0--------|
G|---4--4--4-----7------7------7--------|
D|---4--4--4-----9------7------7--------|
A|---0--0--0-----0------5------5--------|
D|--------------------0-0----0-0--------|
Iím not a good friend, I'm not a friend at all
It's never resolved, I'm nervous when you call
My words are limp, and my mind is dry


d|---5------0------------------|
B|---5------10-----------------|
G|---4------11-----------------|
D|---5------12-----------------|
A|---0------0------------------|
D|---------0-------------------|
I try to be polite
but I feel like I'm stuck for life


d|----0-------8------0----|
B|----3-------6------0----|
G|----4-------7------7----|
D|----5-------8------7----|
A|----5-------0------5----|
D|-------------------0----|
I follow my heart, it leads me far from you


d|---0--0--0-----9------0------0--------|
B|---3--2--0-----8------0------0--------|
G|---4--4--4-----7------7------7--------|
D|---4--4--4-----9------7------7--------|
A|---0--0--0-----0------5------5--------|
D|--------------------0-0----0-0--------|
No matter how close we are, I'm far, far away
I have too much now to fill my day today
I'm not a good friend, I'm not a friend at all


d|---5------0------------------|
B|---5------10-----------------|
G|---4------11-----------------|
D|---5------12-----------------|
A|---0------0------------------|
D|---------0-------------------|
I don't need obligations to our
crippled conversations


d|----0-------8------0----|
B|----3-------6------0----|
G|----4-------7------7----|
D|----5-------8------7----|
A|----5-------0------5----|
D|-------------------0----|
I'd never tell you, it's something you should know
I'm not a friend at all, oh, please let me go


d|----0--------5------------|
B|----10-------5------------|
G|----11-------4------------|
D|----12-------5------------|
A|----0--------0------------|
D|--------------------------|
Somehow I don't trust you
I don't trust myself
And I may never forgive you
'Cuz I can't forgive myself
Somehow I don't trust you
I don't trust myself
And I may never forgive you
'Cuz I can't forgive myself
Don't break my stride
Don't break my stride
Don't break my stride
Don't break my stride





Comments


Popular Sebadoh tabs & chords
Together Or Alone Bass Tabs
Magnet's Coil Chords
Soul And Fire Chords
Sacred Attention Tabs
Soul And Fire Tabs
Soul And Fire 1 Tabs
Think Tabs
Happily Divided Ukulele
Mean Distance Ukulele
Together Or Alone Ukulele


Song lyrics



↑ Back to top | Tablatures and chords are parodies/interpretations of the original songs. You may use it for private study, scholarship, research or language learning purposes only
© 2014 AZChords.com Contact us | Privacy policy | DMCA | Add/correct tabs | Request tabs | Top 50 tabs