» » »

Beautiful Girl Tabs (ver.1)

Artists:  A B C D E F G H I J K L M N O P Q R S T U V W X Y Z # 

Beautiful Girl Tabs (ver.1)

Sean Kingston
Rating:
5/5 (7 votes)

Hard to play? Try these video lessons and learn fast.
                Sean Kingston – Beautiful Girls (Stand By Me)



video of me playing/singing it:

Key of G#

Tuning: C# G# C# D# G# D#

X = mute
* = slap
^ = hammer on

Intro:
-0----0----0----0----0-|
-0----0----0----0----0-|
-0----0----2----4----0-|
-2----x----0----2----2-|
-0----4----0----2----0-|
------4----0----2------|

Verse:
-----0-------0-------0-------0---|
-------0-------0-------0-------0-|
---0-------0-------0-------0-----|
---------------------------------|
-0-------0-----------------------|
-----------------4-------4-------|

-----0--------0-------0-----|
-------0--------2-------0---|
---0--------0-------0-------|
----------------------------|
------------------0-------0-|
-0--------2-----------------|

Pre-chorus:
-----0-----------0-----------0-----------0-------|
-------0---0-------0---0-------0---0-------0---0-|
---0-----0-----0-----0-----0-----0-----0-----0---|
-------------------------------------------------|
-0-----------0-----------------------------------|
-------------------------4-----------4-----------|

-----0-----------0-----------0---------|
-------0---0-------2---0-------0---0---|
---0-----0-----0-----0-----0-----0-----|
---------------------------------------|
-------------------------0-----------0-|
-0-----------2-------------------------|

Chorus:
-0----0----0----0----0-|
-0----0----0----0----0-|
-0----0----2----4----0-|
-2----x----0----2----2-|
-0----4----0----2----0-|
------4----0----2------|

Bridge: (palm mute)
---*----------*----------*----------*----------*---|
---*----------*----------*----------*----------*---|
---*----------*----------*----------*----------*---|
---*----------*----------*----------*----------*---|
-0-*-0------0-*-0--0-----*----------*----------*---|
---*----2-6---*------6-4-*-4--2-6-4-*-4--4-2-0-*-0-|

-------*----------*----------*--------|
-------*----------*----------*--------|
-------*----------*----------*--------|
-------*----------*----------*--------|
-------*--------0-*-0------0-*-0------|
-0-4-2-*-2--2-6---*----2-6---*----2-6-|

-----------------------------------------------------|
-----0----------0----------0----------0----------0---|
---0---0------0---0------0---0------0---0------0---0-|
-----------------------------------------------------|
-0----------0------0---------------------------------|
--------2-6----------6-4------2-6-4------4-2-0-------|

--------------------------------------|
---------2----------0----------0------|
-------0---0------0---0------0---0----|
--------------------------------------|
----------------0----------0----------|
-0-4-2------2-6--------2-6--------2-6-|

-----------------------------------------------------|
-----0----------0----------0----------0----------0---|
---0---0------0---0------0---0------0---0------0---0-|
-----------------------------------------------------|
-0----------0------0---------------------------------|
--------2-6----------6-4------2-6-4------4-2-0-------|

--------------------------------------|
---------2----------2-0--------2-0----|
-------0---0------0----------0--0-----|
--------------------------------------|
---------------------------0----------|
-0-4-2------2-6-4------2-6--------4-2-|

Outro:
---------------------------0-|
------0--------0----0---0--0-|
----0--------4---4--0^2-0--0-|
-----------2--------0---0--2-|
---------------------------0-|
-0-------2-------------------|
            
Hard to play? Try these video lessons and learn fast. | Correct




comments powered by Disqus
↑ Back to top | Tablatures and chords are parodies/interpretations of the original songs. You may use it for private study, scholarship, research or language learning purposes only