» » »

Seahorses, Hello Tabs (ver.1)

Artists:  A B C D E F G H I J K L M N O P Q R S T U V W X Y Z # 

Hello Tabs (ver.1)

Seahorses Tabs
 Rating:
4/5 (4 votes)
Hello lessons Tabs too difficult? Try these video lessons and learn fast
1
                Hello(v1.0) - The Seahorses

Written by Helme
Let us know of any corrections you have.

[0:00]

E-6---------------3---------------3-------1-----------------0---------------
B-7---------------3---------------3-------1-----------------0---------------
G-7---------------0---------------0-------2-----------------0---------------
D-----------------0---------------0-------3-----------------2---------------
A-----------------2---------------0-------3-----------------2---------------
E--------------3--3------------2--2-------1-----------------0---------------
    I know the wind and the rain and the lightning and the thunder's filled

                                          [0:24]

E----0-------------3-------------------3----------------------------
B----1-------------3-------------------3----------------------------
G----0-------------0-------------------0--------7-----------7h9-7h9-
D----2---------------------------------0----7/9---9-7-5-7-9---------
A----3---------------------------------2----------------------------
E----3---------------------------------3----------------------------
  my brain, have I changed, I'm asking you                      All

E-------------------7--------7-----------------7---------------------
B-7h8p7h8p7h8p7-----8--------7-----------------6---------------------
G---------------7---7--------7--7--7h9p7-------7--7--7h9p7-----------
D--------------------------------------------------------------------
A--------------------------------------------------------------------
E--------------------------------------------------------------------
     I     Know     is the sun        and its shining      way above

E-----12/5-------------------------------------------------------------
B-12--13/6-----------8-10-10^11^10--10^11^10p8---8--8--8--------8------
G-12--12/5-------7h9---------------------------9----7--7--7-7h9-7------
D-12-------------------------------------------------------------------
A----------------------------------------------------------------------
E----------------------------------------------------------------------
  my cloud      so high            It can't be found we all look around


E---------------------------------------3-----------------3------------
B---------------------------------------1-----------------1------------
G-2p0-2p0-2^3^2p0-----------------------2-----------------0------------
D----------------2-0-2-0----------------2-----------------2------------
A------------------------2-0-2-0--------------------------3------------
E--------------------------------3-0-----------------------------------
             for the times we left behind   oh well never mind     i'll

E-----------------3-----3--2--3--2---3------------------------3---
B-----------------3-----3--3--3--3---3----------------0-1-0---1---
G-----------------0-----0--0--0--0---0------------0-2-------0-2---
D-----------------0------------------2------------------------2---
A-----------------2------------------2----------------------------
E-----------------3-----------------------------------------------
 take you their tommorrow                 And I'm sorry if I seem

E-------------------3-------------------------------------------3-3-3-3-
B-------------------3-------------------------------------------3-3-3-3-
G-------------------0---------------------------------------------------
D-------------------2---------------------------------------------------
A-------------------3----------------------------------------0----------
E----------------------------------------------------------3------------
  to always vent my splein   its just the path I choose to follow.......

E-3--------------2--
B-3--------------3--
G-0--------------2--
D-0--------------4--
A-2--------------2--
E-3--------------2--
...     so hello

                           (mute)
E---------------------------7----------------------------------------
B---------------------------8----------------------------------------
G---------------------------7--------------------------------7-7h9p7-
D----------------------------------------------------------9---------
A--------------------------------------------------------9-----------
E--------------------------------------------------------------------
 And I hope you're still my friend  I think I'm on  the mend

E-------------------------------------------7----8/0--------------3--------
B-------------------------------------------8----8/0--------------3--------
G-------------7-7-7h9p7---7---------------------------------------0--------
D---------------------------7-------------------------------------0--------
A--------9--8-----------------7-----------------------------------2--------
E-----------------------------------------------------------------3--------
 And you know               I don't mean to offend     I wish we all could 

E-----------------3-3------3---3--------5-5------5------------------
B-----------------3-3------3---3--------5-5------5--1p0-------------
G-----------------4-4--3h4---3----------6-6--5h6--------2p0---------
D-----------------5-5-------------------7-7-----------------3-------
A-----------------5-5-------------------7-7-------------------------
E-----------------3-3-------------------5-5-------------------------
 fly        All I know           is the sun         and its shining

E--------------------8--------3--3--3--3--3--3---------8--7----7/3--------------------
B--------------------8--------3--3--3--3--3--3---------8--8----8/3-------------------
G--------------9-----9---------------------------------7--------------------
D-2------------10------------------------------------------------------------
A-3------------10-------------0--1--3--3--1--1-------------------------------------
E--------------8------------3-----------------------------------------------
  way above my cloud     so high           it can't be found
            
Submit corrections

comments powered by Disqus
↑ Back to top | Seahorses Tabs for Hello. Lyrics for acoustic guitar and electric guitar. 1 Tablatures and chords are parodies/interpretations of the original songs. You may use it for private study, scholarship, research or language learning purposes only