» » »

Seahorses, Hello Bass tabs (ver.1)

Artists:  A B C D E F G H I J K L M N O P Q R S T U V W X Y Z # 

Hello Bass tabs (ver.1)

Seahorses Tabs
Rating:
0/5 (0 votes)
Hello lessons Tabs too difficult? Try these video lessons and learn fast
                Written by Helme

I did this a couple of years ago, just after I started on the bass.
It goes a bit awry towards the end I must admit...
Also, it is quite difficult to follow without the lyrics; my copy
does have the lyrics of course, so at least I'm OK. 

G-------------------------------------------------------------------
D-------------------------------------------------------------------
A-------------------------------------------------------------------
E------------3------------2---------------1----------------0--------

G-------------------------------------------------------------------
D-------------------------------------------------------------------
A-----123-------------3---------------------2-----3-4-5-------------
E-------------------3-----------------------------------------------

G--------------------------------------------------------------------
D--------------------------------------------------------------------
A---3-5-3------------------------------------------------------------
E-----------3----------2-3-2---------------1-2-1---------------0-----

G-------------------------------------------------------------------
D------------------------------------------------------------------0
A-----1-2-3----------3--------------3-------------------------------
E---------------------------------------------3---------------------

G-------------------------------------------------------------------
D-------------------------------------------------------------------
A----------------------------------0------------------123-----------
E-------------------------------------------------------------------

G-----------------------------------------------------------------
D-----------------------------------------------------------------
A-----------------------------------------------------------------
E----------------123-----------3---2-----------------------3-4-5--

G-----------------------------------------------------------------02320-
D----------------------------------------------------------------------1
A---------------------3-------------------------------------------------
E-----------------------------------------------------------------------

G-------------------
D-0-----------------
A--3-2---------345--
E-------------------

G--------------------------------------------------------------------
D--------------------------------------------------------------------
A--------------------------------------------------------------------
E------------------------------3--------------------------2----------

G--------------------------------------------------------------02320----
D-------------------------------------------------------------------1---
A------------------------------------------123--------------------------
E----------1--------------0---------------------------------------------

G--------------------------------------------------------------------
D-0------------------------------------------------------------------
A---3-2--3-----------------------------------------------------------
E---------------3---232-----------------5--454----------------1---31-

G-----------------------------02320-----------------------------------------
D----------------------------------1-0--------------------------------------
A----------------123-------------------3-2-------------------5\--------------
E---0-------------------------------------------------------------3---------
            
Submit corrections

comments powered by Disqus
↑ Back to top | Seahorses Bass for Hello. Lyrics for acoustic guitar and electric guitar. Tablatures and chords are parodies/interpretations of the original songs. You may use it for private study, scholarship, research or language learning purposes only