» » »

Deep And Dark Tabs (ver.1)

Artists:  A B C D E F G H I J K L M N O P Q R S T U V W X Y Z # 

Deep And Dark Tabs (ver.1)

Scorpions
Rating:
0/5 (0 votes)

Hard to play? Try these video lessons and learn fast.
                SCORPIONS 
Unbreakable
Deep and dark    tab

Intro guitare 1 :

E-------------|---------------I
B-------------|---------------I
G----5--------|------5--------I       X2
D----5--------|------6--------I
A----3--------|------6--------I
E-------------|------4--------I

Guitare 2 :
Pendant l'intro guitare 1 :

E-------------|---------------I
B-------------|---------------I
G--5-3--5-----|---5-3--5------I       X2
D-------------|---------------I
A-------------|---------------I
E-------------|---------------I

Riff 1 : 

E-------------------------------I
B-------------------------------I
G-------------------------------I     X4
D-------------------------------I
A--------1-----3-----4------6---I
E--0-0-3---0-3---0-3---0-3------I

Riff 2 :
Guitare 1 :

E----------|----------|---------|------------I
B----------|----------|---------|------------I
G--5-------|--5-------|--8------|------------I
D--5-------|--6-------|--8------|---5--------I
A--3-------|--6-------|--6------|---5--------I
E----------|--4-------|---------|---3--------I

Guitare 2 :

E----------|----------|---------|------------I
B----------|----------|-----4---|-----8------I
G-5-3--5---|-5-3--5---|-3-0-----|-3-0--------I
D----------|----------|---------|------------I
A----------|----------|---------|------------I
E----------|----------|---------|------------I

Refrain :

E----------|----------|---------|------------I
B----------|----------|---------|------------I
G--5-------|----------|--8------|------------I
D--5-------|--6-------|--8------|---8--------I
A--3-------|--6-------|--6------|---8--------I
E----------|--4-------|---------|---6--------I

Riff 3
Guitare 1 :

E----------|----------|---------|------------I
B----------|----------|---------|------------I
G--5-------|--5-------|--8------|------------I
D--5-------|--6-------|--8------|---5--------I
A--3-------|--6-------|--6------|---5--------I
E----------|--4-------|---------|---3--------I

Guitare 2 :

E----------|----------|---------|------------I
B------4---|------4---|------4--|------8-----I
G-5-3------|-5-3------|-0-3-----|-3-0--------I
D----------|----------|---------|------------I
A----------|----------|---------|------------I
E----------|----------|---------|------------I
            
Hard to play? Try these video lessons and learn fast. | Correct




comments powered by Disqus
↑ Back to top | Tablatures and chords are parodies/interpretations of the original songs. You may use it for private study, scholarship, research or language learning purposes only