» » »

Scorpions, No One Like You Tabs (ver.1)

Artists:  A B C D E F G H I J K L M N O P Q R S T U V W X Y Z # 

No One Like You Tabs (ver.1)

Scorpions Tabs
 Rating:
4/5 (4 votes)
No One Like You lessons Tabs too difficult? Try these video lessons and learn fast
1
                This should be accurate.  

Good luck this is a great solo to learn.  It will sound best on a Gibson with Marshal amp!

INTRO SOLO:

p1
15b-----------------------------------------------------------------15------------------
----14--16--16b-r-14/12--14p12--------------14-16-16br-14s12----------------------------
--------------------------------14~~~~~-------------------------------------------------

p2
---------------17---------20---20b~~~---17---20---19p17---19p17--------17---------------
------17--20b------20p17------------------------------------------20-------20b~~~~~-----
-/17------------------------------------------------------------------------------------

p3
-19br--17------19b~~~~~~~~--------------------------------------------------------------
-----------19--------------------------------------------------------------------------


15b-----------------------------------------------------------------15------------------
----14--16--16b-r-14/16--14p12--------------14-16-16br-14s12----------------------------
--------------------------------14~~~~~-------------------------------------------------

p4
---------------17---------20b---20~~~---17---20p19p17---19p17------17-------------------
------17--20b------20p17---------------------------------------20b------20p17------17---
-/17---------------------------------------------------------------------------19-------
p4 cont.
--17------------------------------------------------------------------------------------
------20--19p17-------------------------------------17~~~~~~----------------------------
------------------19b-r--(19)p17------19-----17-----------------------------------------



Girl, Its been a long time that we've been apart, much to ling for a man who needs love.  
-----------0-------------------------------------------------------0-----------------------0-----
--------------1---------------1----------------------------------------1-------------------------
--------2--------2--------2-----------------------------------2------------2-----------2---------
-----2-------------0---3----------3----2---0---------------2------------------0----3-------------
--0---------------------------------------------3-------0---------------------------------------

I've missed you since I've been away........
-----------0--------------------------------------------------------0---------------0-----------0--
--------------1---------------1----------------------------------------1-----------------3---------
--------2--------2--------2------------------------------------0----------0-----------4-----4------
-----2-------------0---3--------3----2---0---------------2------------------0---2------------------
--0---------------------------------------------2--3-----------------------------------------------


---2--2---------------------2--2--------------------2--2-------------------------------
---2--2-----3--3----5--5----2--2----3--3----5--5----2--2---3--3---5--5---3------2------
---0--0-----3--3----3--3----0--0----3--3----5--5----0--0---3--3---5--5---3------2------
------------1--1----3--3------------1--1----3--3-----------1--1---3--3---1------0------


SOLO
-------------------------------(semi harmonic)------------------------------------8b~~~~~~~---
---7(b-hold)------7-7-7-7-7-7-7-7-7-7-7-7(r)----(7b1/2) (7r)  p5 -7--5-----------------------

---------------------------------------------13b------------------------5-------8p5-----------
---------14b-----(14r)  p12----------14----------------------7---(7b)---------------8-7p5-----
(0)*-----------------------------14--------------------------------------------------------7--

--7p5--------------------------------------------------------------------
--------7p5--7---7p5-----------------------------------------------------
---------------------------7-6-5-3--------3b(slow)-----------------------


--17/20~~~~~~~----17-19-19b--17----------17----19/22b------------------17-------17-------
-----------------------------------20-------------------------------17-----20b------20b--
-----------------------------------------------------------(10) /17----------------------

--17----------17----------17---------17---------17-----------17-20b--17--------17-20b--17-----17-
-------20b----------20b-------20b--------20b-------20b----------------------20b-----------20b----

-20b(hold)---20---20---20r-----20-20-20p17--------------17-h-20-p-17----------17-h-19-p-17-------

-------------17-h-20-p-17----------17-h-20-p-17------------17--20-p-17----20b-------------
-------19--------------------20---------------------19------------------------------------


----17------------------------------------------------------------------------------
----------20-p-17---------17--------------------------------------------------------
--------------------20--------20-19--17---------------------------------------------
-------------------------------------------19--17-----------------------------------
----------------------------------------------------19-18-17-15b(hold)------15(r)---
            
Submit corrections

comments powered by Disqus
↑ Back to top | Scorpions Tabs for No One Like You. Lyrics for acoustic guitar and electric guitar. 1 Tablatures and chords are parodies/interpretations of the original songs. You may use it for private study, scholarship, research or language learning purposes only