» » »

Scorpions, Always Somewhere Tabs (ver.6)

Artists:  A B C D E F G H I J K L M N O P Q R S T U V W X Y Z # 

Always Somewhere Tabs (ver.6)

Scorpions Tabs
 Rating:
4.2/5 (5 votes)
Always Somewhere lessons Tabs too difficult? Try these video lessons and learn fast
                
*this tab is for the lead that plays the riffs.


guitar 1 - lead

legend:
^ - harmonics
b - bend
h - hammer on
s - slide



intro: guitar1

e|-----------------|---------3s5|
B|-3b5--3----------|-3b5--3-----|
G|----------5p4-5-2|------------|
D|-----------------|------------|
A|-----------------|------------|
E|-----------------|------------|

ad-lib in verse 1: guitar1

e|--16-14-13----14-13-11--------------------------|
B|--------------------------10-12-13-12---10p9b10-|
G|------------------------------------------------|
D|------------------------------------------------|
A|------------------------------------------------|
E|------------------------------------------------|

e|--16-14-13----15-13-------------b18--16s18-16---13h14p13-|
B|--------------------13-----------------------------------|
G|---------------------------------------------------------|
D|---------------------------------------------------------|
A|---------------------------------------------------------|
E|---------------------------------------------------------|

solo: 
guitar 1

e|-----------------------------------|
B|-b17-b15--12-15----15-13-12-13-b10-|
G|-----------------------------------|
D|-----------------------------------|
A|-----------------------------------|
E|-----------------------------------|

e|---------------------8s10-8-6-5|---------------------|
B|------10-----10-10-------------|-b10---5-6-8-^10-8---|
G|-9h10-----9--------------------|------------------b9-|
D|-------------------------------|---------------------|
A|-------------------------------|---------------------|
E|-------------------------------|---------------------|

e|-13-16-18-----16-14-13-11------------------------------|
B|-------------------------------11-13-14-16-14-13-14----|
G|----------------------------------------------------10-|
D|-------------------------------------------------------|
A|-------------------------------------------------------|
E|-------------------------------------------------------|

e|--------------11p8-8---|--b12--12-10-8----|
B|------10-------------9-|---------------10-|
G|-9h10------------------|------------------|
D|-----------------------|------------------|
A|-----------------------|------------------|
E|-----------------------|------------------|

ending: guitar 1
 
e|-------------------------------|
B|-10--10s12-10----8-10-10s12-10-|
G|----------------8--------------|
D|-------------------------------|
A|-------------------------------|
E|-------------------------------|

e|---------------------|---------------------------------|
B|--8h10--12-10-8-10---|---------------------------------|
G|-------------------9-|--------------12-----------------|
D|---------------------|-12-10-9--12----12h14p12---12-10-|
A|---------------------|---------------------------------|
E|---------------------|---------------------------------|

e|----------------------------------|
B|----------------------------------| e
G|----------------------------------| n
D|-12-14p12-10-9---10-12p10-9-------| d
A|-------------------------------12-| :p
E|----------------------------12----|
            
Submit corrections

comments powered by Disqus
↑ Back to top | Scorpions Tabs for Always Somewhere. Lyrics for acoustic guitar and electric guitar. Tablatures and chords are parodies/interpretations of the original songs. You may use it for private study, scholarship, research or language learning purposes only