>
 >
Aleyah

Aleyah Guitar Tabs

Scorpions - Aleyah chords, tabs, tablatures, lyrics

Guitar lessons | Add/correct | Request | Top 50 tabs Artists:  A B C D E F G H I J K L M N O P Q R S T U V W X Y Z 0-9

Aleyah Guitar Tabs – Scorpions

CD, Sheet music, Poster

Do you like Aleyah? Share with your friends now
Tabs


this is ziad beylouni from lebanon 
have a good time playing this song...
any comments or corrections are welcomed at 

------------------------------------------------------------------------------
------------------------------------------------------------------------------
------------------------------------------------------------------------------
-7--8-7-5-7-8--7--8-7-5-5--7--8-7-5-7-8--7--8-7-5-5---------------------------
-7--8-7-5-7-8--7--8-7-5-5--7--8-7-5-7-8--7--8-7-5-5---------------------------
-5--6-5-3-5-6--5--6-5-3-3--5--6-5-3-5-6--5--6-5-3-3---------------------------
 INTRO (this rythm is played most of the song)      easy way...is the sky     

------------------------------------------------------------------------------
------------------------------------------------------------------------------
----------------------5-5-----------------------------------------------5-5---
-7--8-7-5-7-8--7--8-7-5-5--------------------------7--8-7-5-7-8--7--8-7-5-5---
-7--8-7-5-7-8--7--8-7-3-3--------------------------7--8-7-5-7-8--7--8-7-3-3---
-5--6-5-3-5-6--5--6-5------------------------------5--6-5-3-5-6--5--6-5-------
                            easy way...of the time                            

------------------------------------------------------------------------------
-6^v--------------------------------------------------------------------------
--------------5-----7------3-3-3-----------5-------7-----3-3-3----------5-----
------3-------5-----7------3-3-3-3---------5-------7-----3-3-3-3--------5-----
------3-------3-----5------1-1-1-3---------3-------5-----1-1-1-3--------3-----
------1------------------------x-1---------------------------x-1--------------
      dancing on the razor blade brake the ice but never brake when the time  

------------------------------------------------------------------------------
------------------------------------------------------------------------------
--7---3-3-3-----------5----------7-7-7-7-7-7-7-7-7-7-7-7-7--------------------
--7---3-3-3----3------5----------7-7-7-7-7-7-7-7-7-7-7-7-7--------------------
--5---1-1-1----3------3----------5-5-5-5-5-5-5-5-5-5-5-5-5--------------------
----------x----1-----------------x-x-x-x-x-x-x-x-x-x-x-x-x--------------------
 meets destiny take a chance and come with me come with me                    

-10----------------10----------------10----------------10---------------------
-13b15-------------13b15v------------13b15v------------13b15v-----------------
------------------------------------------------------------------------------
------------------------------------------------------------------------------
-5555555555555555--3333333333333333--0000000000000000--11111111--33333333-----
-xxxxxxxxxxxxxxxx--xxxxxxxxxxxxxxxx--xxxxxxxxxxxxxxxx--xxxxxxxx--xxxxxxxx-----
 aleyah            aleyah            aleyah            ale ale   aleyah       

-10----------------13----------------13----------------16---------------------
-13b15v------------16b18v------------16b18v------------19b21v-----------------
------------------------------------------------------------------------------
------------------------------------------------------------------------------
-5555555555555555--3333333333333333--0000000000000000--11111111--33333333-----
-xxxxxxxxxxxxxxxx--xxxxxxxxxxxxxxxx--xxxxxxxxxxxxxxxx--xxxxxxxx--xxxxxxxx-----
 aleyah            aleyah            aleyah            (repeat the above...)  

------------------------------------------------------------------------------
-13p10----13v--13p10--------10-------------------------------------13r11-11---
-------12------------12-12^----10-7------5^-------------2^---2-1--------------
---------------------------------------3----3--5^----------3------------------
------------------------------------------------------------------------------
--------------------------------------------------3v-1v-----------------------
 solo                                                                         

----------------10------------------------------------------------------------
-10----------------11-10-------------------------------------------6----------
----12-10-12b14----------12-10-12b14-12b14-10------------------5-7---5-5------
----------------------------------------------12-10------------------x-x------
----------------------------------------------------12-10-8-10----------------
------------------------------------------------------------------------------
                                                                              

------------------------------------------------------------------------------
-8b10-6-------6-----8b10-6----------------------------------------------------
-7b9--5---5-7---5-5-7b9--5----------------------------------------------------
----------------x-x-----------------------------------------------------------
------------------------------------------------------------------------------
------------------------------------------------------------------------------
                           the rest of the song continues as before...





Comments


Popular Scorpions tabs & chords
Lady Starlight Chords
The Good Die Young Chords
White Dove Chords
10 Lightyears Away Tabs
Arizona Tabs
My City My Town 1 Tabs
Under The Same Sun 1 Tabs
Kiss Of Borrowed Time Ukulele
Living And Dying Ukulele
Wind Of Change Spanish Ukulele


Song lyrics



↑ Back to top | Tablatures and chords are parodies/interpretations of the original songs. You may use it for private study, scholarship, research or language learning purposes only
© 2014 AZChords.com Contact us | Privacy policy | DMCA | Add/correct tabs | Request tabs | Top 50 tabs