» » »

Scooter, Nessaja Tabs (ver.1)

Artists:  A B C D E F G H I J K L M N O P Q R S T U V W X Y Z # 

Nessaja Tabs (ver.1)

Scooter Tabs
Rating:
5/5 (1 vote)
Nessaja lessons Tabs too difficult? Try these video lessons and learn fast
                (Intro)
Scooter - Nessaja

Always lived my life alone
Been searching for the place called home
I know that I've been cold as ice
Ignore the dreams- Too many lies
Somewhere deep inside
Somewhere deep inside me- I found
The child I used to be
And I know that it's not too late
Never- Too Late

E-------------------------------------------------------------|
H-------------------------------------------------------------|
G-----9--11-------11----12--9----14--12--11--12--11-----------|
D--12---------12--------------------------------------12--12--|   x2
A-------------------------------------------------------------|
E-------------------------------------------------------------|

E-------------------------------------------------------------|
H--14-14-15--17-----14-14-15-17-------------------------------|
G---------------16--------------16-14-14-------14-------------|
D-------------------------------------------16----------------|
A-------------------------------------------------------------|
E-------------------------------------------------------------|


E-------------------------------------------------------------|
H-----14-15--12-----------------------------------------------|
G--14-----------14-14-----11-14-14-12-11------11-------11-9---|
D----------------------------------------14--------12---------|
A-------------------------------------------------------------|
E-------------------------------------------------------------|

E-------------------------------------------------------------|
H-------------------------------------------------------------|
G---11--------------------------------------------------------|
D-------12----------------------------------------------------|
A-------------------------------------------------------------|
E-------------------------------------------------------------|
            

comments powered by Disqus
↑ Back to top | Scooter Tabs for Nessaja. Lyrics for acoustic guitar and electric guitar. Tablatures and chords are parodies/interpretations of the original songs. You may use it for private study, scholarship, research or language learning purposes only