» » »

Schenker Michael, Into The Arena Tabs (ver.1)

Artists:  A B C D E F G H I J K L M N O P Q R S T U V W X Y Z # 

Into The Arena Tabs (ver.1)

Schenker Michael Tabs
 Rating:
4/5 (4 votes)
Into The Arena lessons Tabs too difficult? Try these video lessons and learn fast
1
                Into the Arena
Michael Schenker
The Music Shop BBS (619)423-4970

triplets
repeat14x
--------------------||-------------------------------------------------------|
--------------------||-------------------------------------------------------|
--7--x--x-----------||o------------------------------------------------------|
--7--x--x-----------||o------------------------------------------------------|
--5--x--x-----------||------------------------------0-2--3-0-2----0----------|
-----------------0-2||-3-0-0--0-0-2--3-0-0-0-0-2--3-------------3---3--------|


-2-0-2--3-0-0--0-0-2--3-0-0--0-0-0--3-0-0--0-0-2--3-0-0--0-0-2--3------------|


---0---------------------------------------3-3-5--2-2-3--0-0-2---------------|
-3---3--2-0-2--3-0-0--0-0-2--3-0-0--0-0-0-----------------------3-0-2--------|


-------------------------------0-2--3-0-2-----0------------------------------|
-3-0-0--0-0-2--3-0-0--0-0-2--3-------------3----3--2-0-2--3-0-0--0-0-2-------|


--------------------------------------------10-10-10---10-10-10-------7------|
--------------------------------------------11-11-11---11-11-11-------7------|
----------------3-3-5--2-2-3--0-0-2------------------------------------------|
--3-0-0--0-0-2-----------------------3---------------------------------------|


------------------------------------------7----------------7h10p7h10p7-------|
-9-9-9--9-9-9--9-9-9--9-9-9--7---------------10-10-10-10~--------------------|
-9-9-9--9-9-9--9-9-9--9-9-9--7-9p7----7h8------------------------------------|
-----------------------------------9-----------------------------------------|


-------12--------10-------12--------10--------12--12--10--9-----7-------------|
-11/13-13--13\11-11-11/13-13--13\11-11--11/13-13--13--11--9-----7h8-----------|

                                                ===========2x=================
-------------------------------7-------------------10----10-----10----10----10-|
-------------------------7h8-----7--10/12-12~---13----13----13-----13----13----|
--------------------7--9-------------------------------------------------------|
--7----------------------------------------------------------------------------|
----9\7-5-----5-7/9------------------------------------------------------------|
----------7--------------------------------------------------------------------|


-15-15---12-12-12----------------10----10----10----10----10----10------------|
---------12-12-12p10-12p10----11----12----13----14----13----12----10h11------|
---------------------------12------------------------------------------------|


--------------12-12-x-------10-----------------10-12-12-x------10----10-------|
--12p10----10------------10-----13-13-x-----10--------------13----------13-10-|
--------11------------11-----------------11-----------------------12----------|

                                      2.================
----10-----------------------------||----------------------------------------|
-------13--------------------------||----------------------------------------|
-12-------12--10------------------o||-14h17p17----14h17p14----14h17p14-------|
-----------------12---------------o||----------17----------17----------17----|
-----------------------------------||----------------------------------------|
---------------------------0-2-----||----------------------------------------|


--14h17p14----14h17p14----14h17p14-----14h17p14----14h17p14----14h17p14------|
-----------17----------17----------17-----------17----------17----------17---|


--14h17p14-------14h17p14--------14tr17---16tr19---14tr17--13tr16---12tr15---|
-----------17-------------17p14----------------------------------------------|


--11tr14\---x---------------------------------------------------------12-----|
--------------x------------------9------10-------10---------12-14/16---------|
--------------------3------5-7/9---9/12----12/14----12---14---------------14-|
------------------5---5/7----------------------------------------------------|


----------------------------17-22-22-22-22-22\-------------------------------|
-------------------------19--------------------------------------------------|
----------14-------16-19-----------------------------------------------------|
-12-14/16----16/19-----------------------------------------------------------|


--------0-2-3--0-2----0------------0-2-3--0-2----0--------------0-2----------|
-0-2-3-------------3----3-2--0-2-3------------3----3-2---0-2-3------3--------|


-0tr2---0tr2---0tr2--0tr2----------------------------------------------------|


------------%-%--%--------------%-%-%-----------%-%-%-----------%-------------|
----8-12------------------9-12------------10-13-----------10-13-------10-13---|
-10--------------------10--------------10--------------11----------10---------|


-----------%------------%-%-%-----------%------------%-----------%------------|
-----10-13--------10-13-----------12-15-------12-15--------13-17--------------|
--11-----------12--------------13----------14-----------15------------12-15---|


----------%-----------%-----------%-----------%---7--x--x--%-%-%--%-%-%------|
----12-15-------12-15-------13-17-----------------7--x--x--------------------|
-13----------14----------15-------------12-15-----5--x--x--------------------|
-------------------------------------13--------------------------------------|


---------6---6--4h6p4--3~--3--------------------------------------6~---------|
-5--5p3----------------------5-5-5p3----------------------5-5-5p3------------|
-------------------------------------5~---3--1h3p1---------------------------|
---------------------------------------------------3/5~----------------------|


--5--6--8-b~---10-10-6---------------------------------------------15p14-----|
-----------------------8----------------------------------------13-------15--|
-------------------------8~-------------------------------11/14--------------|
------------------------------10-8h10p8-------------10-12--------------------|
-----------------------------------------------9h12--------------------------|
-----------------------------------------10-10-------------------------------|


--14p12\11-------------------------------------------------------------------|
-----------12---------------5----5-5--7----------8----8-8-10-----------------|
--------------12-10\9~--------5---------5--5~------8---------10-10~----------|


--8~---8-10-8--7tr8--5tr7--3tr5--2tr3--------5~--4~--5~--7~------------------|


------------18~--18--18~-----------------------------------------------------|
--14--14p12-----------------etc...-------------------------------------------|


The Music Shop BBS (619)423-4970  (San Diego, CA  USA)
Over 6,000 Guitar Tabs, pictures, construction docs, lessons, interviews,
Over 700 Bass Tabs, sound files, lyrics, programs.  If you have any new tab
I'm trying to be another archive for OLGA that's not on the Internet.  Always
looking for new tab, or music related ansi screens for the BBS.  If you have
them, please send them my way.
gig info, demo info sound files etc.,
h = hammeron                                       ps = pick scr*pe
p = pulloff                                        % = repeat phrase
b = bend
/\ = Slide
* = Artificial Harmonic
x = ghost note
tr = trill
            
Submit corrections

comments powered by Disqus
↑ Back to top | Schenker Michael Tabs for Into The Arena. Lyrics for acoustic guitar and electric guitar. 1 Tablatures and chords are parodies/interpretations of the original songs. You may use it for private study, scholarship, research or language learning purposes only