» » »

Scars Of Life, Silent Words Tabs (ver.2)

Artists:  A B C D E F G H I J K L M N O P Q R S T U V W X Y Z # 

Silent Words Tabs (ver.2)

Scars Of Life Tabs
 Rating:
4/5 (4 votes)
Silent Words lessons Tabs too difficult? Try these video lessons and learn fast
1
                Silent Words by Scars of Life

Tuning is Drop C (CGCFAD)

Theres an other guitar playing but i just tabbed the more obvious stuff and added 
a bit of stumming to make it 

sound better with one guitar only, probly not perfect but sounds good

Hope you enjoy

Riff 1
D|---------------------------------------------------------------------------||
A|----------0h10-------3-----1-----0---------0h10-------------0h10-----------||
F|--------2--------2-----2-----2-----2-----0--------0-------0----------------||
C|------2--------2---2-----2-----2-------2--------2---2---2------------------||
G|----0--------------------------------3----------------3----------3-3-2-0---||
C|---------------------------------------------------------------------------||

Riff 2
D|---------------------------------0-------------0---------------------------||
A|----------0h10-------3-----1---------------0-----0----------3-----1--------||
F|--------2--------2-----2-----2-----------0---------0------0-----0----------||
C|------2--------2---2-----2-----2-------2----------------0------------------||
G|----0--------------------------------3----------------2--------------------||
C|---------------------------------------------------------------------------||

Riff 2b
D|---------------------------------0-------------0---------------------------||
A|----------0h10-------3-----1---------------0-----0----3--------------------||
F|--------2--------2-----2-----2-----------0---------0--0--------------------||
C|------2--------2---2-----2-----2-------2--------------0--------------------||
G|----0--------------------------------3----------------2--------------------||
C|---------------------------------------------------------------------------||

Riff 3
Strum it how you like , its just a basic idea
D|------------------------------------------------------------------------------------||
A|------------------------------------------------------------------------------------||
F|------------------------------------------------------------------------------------||
C|-3--3--0--0--0-0-0-0--7--7--5--5--5-5-5-5---3--3--0--0--0-0-0-0--7--7--9--9--9-9-9--||
G|-3--3--0--0--0-0-0-0--7--7--5--5--5-5-5-5---3--3--0--0--0-0-0-0--7--7--9--9--9-9-9--||
C|-3--3--0--0--0-0-0-0--7--7--5--5--5-5-5-5---3--3--0--0--0-0-0-0--7--7--9--9--9-9-9--||

Riff 4                                                             
D|--0--0-0-0-0--0--0-0-0-0-0-0--0-0-0-0--0--0-0-0--0-0--0-0-0-0--0-|
A|--0--0-0-0-0h11--1-1-1-1-1-1--1-1-1-1--1--1-1-1--1-0--0-0-0-0h11-|
F|--2--2-2-2-2--2--2-2-2-2-2-0--0-0-0-0--0--0-0-0--0-2--2-2-2-2--2-|
C|--2--2-2-2-2--2--2-2-2-2-2-2--2-2-2-2--2--2-2-2--2-2--2-2-2-2--2-|
G|--0--0-0-0-0--0--0-0-0-0-0-3--3-3-3-3--3--3-3-3--3-0--0-0-0-0--0-|
C|-----------------------------------------------------------------|

        Second time ends here -|
-0-0-0-0-0------------------------|
-1-1-1-1-1------------------------|
-2-2-2-2-2------------------------|
-2-2-2-2-2-3--3-3-3-0--0--0-0-0--0|
-0-0-0-0-0-3--3-3-3-0--0--0-0-0--0|
-----------3--3-3-3-0--0--0-0-0--0|

Riff 1
Riff 2
Riff 1
Riff 2
Riff 1
Riff 2
Riff 3 2x
Riff 1 2x
Riff 2
Riff 1
Riff 2
Riff 3 2x
Riff 4 2X
Riff 1
Riff 2b
Riff 3 2x
            
Submit corrections

comments powered by Disqus
↑ Back to top | Scars Of Life Tabs for Silent Words. Lyrics for acoustic guitar and electric guitar. 1 Tablatures and chords are parodies/interpretations of the original songs. You may use it for private study, scholarship, research or language learning purposes only