» » »

Saybia, Joy Tabs (ver.1)

Artists:  A B C D E F G H I J K L M N O P Q R S T U V W X Y Z # 

Joy Tabs (ver.1)

Saybia Tabs
 Rating:
4/5 (4 votes)
Joy lessons Tabs too difficult? Try these video lessons and learn fast
                (Solo)
-------------------------------------------------------------------------------
			     SAYBIA - JOY (solo)
-------------------------------------------------------------------------------

Tuning: standard 

Dunno if this is right, but most of it is though..
This solo is pretty much based on F# minor pentatonic (or something like that lol)

Solo:

  02:48
e|---------------------------------------------------------------------------|
B|---------------------------------------------------------------------------|
G|--8~------------------------------------------------------6----7h9-9b11r9--|
D|-------7h9---7------7-6~---------------------7---7h9----/9---7-------------|
A|----------------9-----------7-9-7h9-7-6---/9----9--------------------------|
E|---------------------------------------------------------------------------|

                               03:22      PH                      PH
e|---------------------------------------------------------------------------|
B|---------------------------------------------------------------------------|
G|--9/11\9------------------------------9-----------9-----9------------------|
D|--9/11\9--7/9\7----------9-7-9b11--9b11-11br9--9b11--9b11--7h9-9b10br9-7---|
A|----------7/9\7--7h8h9---------------------------------------------------9-|
E|---------------------------------------------------------------------------|

             PH                          03:39             PH         PH
e|---------------------------------------------------------------------------|
B|-----------------------------------------------10--10h12-12~--10h12-12-12~-|
G|-------------------------------9--9----9b11--11--11------------------------|
D|--7p6h7p6--9p7h9p7--/9-7h9-7h9-------11------------------------------------|
A|---------------------------------------------------------------------------|
E|---------------------------------------------------------------------------|
         
	 PH					     PH			   let ring
e|---------------------------------------------------------------------------|
B|-10h12-12b14-14br12-10-------------10-10-9-12~--10-12b14-12b14br12b14-14b16|
G|----------------------11----9-9h11------------------------------------x----|
D|-------------------------/11------------------------------------------x----|
A|---------------------------------------------------------------------------|
E|---------------------------------------------------------------------------|

| ~   vibrato
| /   slide up
| \   slide down
| h   hammer-on
| p   pull-off
| b   bend note
| br  bend release
| x   Mute note
| PH  Pinched harmonic
===============================================================================
            
Submit corrections

comments powered by Disqus
↑ Back to top | Saybia Tabs for Joy. Lyrics for acoustic guitar and electric guitar. Tablatures and chords are parodies/interpretations of the original songs. You may use it for private study, scholarship, research or language learning purposes only