» » »

Saybia, In Spite Of Bass tabs (ver.1)

Artists:  A B C D E F G H I J K L M N O P Q R S T U V W X Y Z # 

In Spite Of Bass tabs (ver.1)

Saybia Tabs
Rating:
0/5 (0 votes)
In Spite Of lessons Tabs too difficult? Try these video lessons and learn fast
                (Bass kicks in at the same time the singing does; 24sec)
Intro (Play 2 times):
  1   2   3   4   1   2   3   4   1   2   3   4   1   2   3   4  
G|---------------|---------------|---------------|---------------|
D|---------------|---------------|---------------|---------------|
A|---------------|---------------|---------------|---------------|
E|5--------------|------------5__/12-------------|---------------|

Verse (Play 2 times)
  1   2   3   4   1   2   3   4   1   2   3   4   1   2   3   4  
G|---------------|---------------|---------------|---------------|
D|---------------|---------------|---------------|---------------|
A|---------------|---------------|---------------|---------------|
E|5-------5-5----|5-------5-5----|0-------0-0----|0-------0-0----|



PreChorus (...In Spite off......):
  1   2   3   4   1   2   3   4   1   2   3   4   1   2   3   4  
G|---------------|---------------|---------------|---------------|
D|---------------|---------------|---------------|---------------|
A|---------------|5-5---0-5-5----|7-7---0-5-5----|0-0-----0-0----|
E|5-----0-5-5----|---------------|---------------|---------------|

G|---------------|---------------|---------------|---------------|
D|---------------|---------------|---------------|---------------|
A|3-3---0-3-3----|0-0-----0-0----|2-2---0-2-2---0|2-2---0-2------|
E|---------------|---------------|---------------|---------------|

Chorus:
  1   2   3   4   1   2   3   4   1   2   3   4   1   2   3   4  
G|---------------|---------------|---------------|---------------|
D|---------------|---------------|---------------|---------------|
A|7-----5-7-7---7|5-5---0-5-5-5-7|0-0---0-0-0----|2-2---0-2-2----|
E|---------------|---------------|---------------|---------------|


Verse 2(Play times)
  1   2   3   4   1   2   3     4   1   2   3   4   1   2   3   4  
G|---------------|-----------------|---------------|---------------|
D|---------------|-----------------|---------------|---------------|
A|---------------|--------045404540|7-----0-7-7----|7-----0-7-7----|
E|5-----0-5-5----|5-----0----------|---------------|---------------|

  1   2   3   4   1   2   3   4   1   2   3   4   1   2   3   4  
G|---------------|---------------|---------------|---------------|
D|---------------|---------------|---------------|---------------|
A|---------------|---------------|7-------7-7----|7-------7-7----|
E|5-------5-5----|5-------5-5----|---------------|---------------|

G|---------------|---------------|---------------|---------------|
D|---------------|---------------|---------------|---------------|
A|---------------|---------------|7-------7-7----|7-------7-7----|
E|5-------5-5----|5-------5-5----|---------------|---------------|

PreChorus and Chorus as above

  1   2   3   4   1   2   3   4   1   2   3   4   1   2   3   4  
G|---------------|---------------|---------------|---------------|
D|---------------|---------------|---------------|---------------|
A|---------------|---------------|7-------7-7----|7-------7-7----|
E|5-------5-5----|5-------5-5----|---------------|---------------|

G|---------------|---------------|---------------|---------------|
D|---------------|---------------|---------------|---------------|
A|---------------|---------------|7-------7-7----|7-------7-7----|
E|5-------5-5----|5-------5-5----|---------------|---------------|

Play Break as Intro

PreChorus:
  1   2   3   4   1   2   3   4   1   2   3   4   1   2   3   4   
G|---------------|---------------|---------------|---------------|
D|---------------|---------------|---------------|---------------|
A|---------------|5--------------|7-------5------|0--------------|
E|5--------------|---------------|---------------|---------------|

G|---------------|---------------|---------------|---------------|
D|---------------|---------------|---------------|---------------|
A|3--------------|0--------------|2--------------|---------------|
E|---------------|---------------|---------------|---------------|

Chorus

Ending:
  1   2   3   4   1   2   3   4   1   2   3   4   1   2   3   4  
G|---------------|---------------|---------------|---------------|
D|---------------|---------------|---------------|---------------|
A|---------------|---------------|7-----0-7-7---0|7-----0-7-7----|
E|5-----0-5-5---0|5-----0-5-5---0|---------------|---------------|

  1   2   3   4   1   2   3   4   1   2   3   4   1   2   3   4  
G|---------------|---------------|---------------|---------------|
D|---------------|---------------|---------------|---------------|
A|---------------|---------------|7-----0-7-7---0|7-7---0-7-7----|
E|5-----0-5-5---0|5-----0-5-5---0|---------------|---------------|

  1   2   3   4   1   2   3   4   1   2   3   4   1   2   3   4  
G|---------------|-----------------|---------------|---------------|
D|---------------|-----------------|---------------|---------------|
A|---------------|--------0-4540450|7-----0-7-7----|7-----0-7-7----|
E|5-----0-5-5---0|5-----0---------0|---------------|---------------|

  1   2   3   4   1   2   3   4   1   2   3   4   1   2   3   4  
G|---------------|-----------------|---------------|---------------|
D|---------------|-----------------|---------------|---------------|
A|--------0-450--|--------0-4540450|7-----0-7-7----|7-----0-7-7----|
E|5-----0-------0|5-----0-5-5------|---------------|---------------|
            

comments powered by Disqus
↑ Back to top | Saybia Bass for In Spite Of. Lyrics for acoustic guitar and electric guitar. Tablatures and chords are parodies/interpretations of the original songs. You may use it for private study, scholarship, research or language learning purposes only