>
 >
Your Friend

Your Friend Bass Tabs

Save Ferris - Your Friend chords, tabs, tablatures, lyrics

Guitar lessons | Add/correct | Request | Top 50 tabs Artists:  A B C D E F G H I J K L M N O P Q R S T U V W X Y Z 0-9

Your Friend Bass Tabs – Save Ferris

CD, Sheet music, Poster

Do you like Your Friend? Share with your friends now
Bass Tabs
My old girl kept this when we broke up. So Ifinally bought a copy like 2 year later. So I tabbed lots of these really greatsongs. 

Intro1         
G-------------------------------------------- 
D-----5--7--------33-22-00----33-22-0h5h7p5-- 
A-3------------3-----------3---------------- 
E-----------1>------------------------------- 

Intro2 
G--------------------------------------------------- 
D----33-22-00---3-2-0----------5>-7>-3>----5>-3>---- 
A-3----------3-------3------3>---------3>---------- 
E-----------------------3------------------------3>- 

Verse 
G------------------------------------ 
D------2>--0>--5-3------2>--0>--3-5-- 
A -3>---------------3>--------------- 
E------------------------------------ 

Chorus 
G --------------- 
D --------------- 
A -3------------ 
E ------3--5--1-- 

Bridge 
G---------------------------------- 
D-----0--2--3------3>-2-----3>--5>- 
A-3------------------------------- 
E---------------3>-------3>--------





Comments


Popular Save Ferris tabs & chords
Goodbye 2 Bass Tabs
Lies Bass Tabs
Under Bass Tabs
I'm Not Crying For You Chords
Mistaken Chords
Come On Eileen Tabs
The Only Way To Be Tabs
Come On Eileen Ukulele
Let Me In Ukulele
Mistaken Ukulele


Song lyrics



↑ Back to top | Tablatures and chords are parodies/interpretations of the original songs. You may use it for private study, scholarship, research or language learning purposes only
© 2014 AZChords.com Contact us | Privacy policy | DMCA | Add/correct tabs | Request tabs | Top 50 tabs