» » »

Your Friend Bass tabs (ver.1)

Artists:  A B C D E F G H I J K L M N O P Q R S T U V W X Y Z # 

Your Friend Bass tabs (ver.1)

Save Ferris
Rating:
0/5 (0 votes)

Hard to play? Try these video lessons and learn fast.
                My old girl kept this when we broke up. So Ifinally bought a copy like 2 year later. So I tabbed lots of these really greatsongs. 

Intro1         
G-------------------------------------------- 
D-----5--7--------33-22-00----33-22-0h5h7p5-- 
A–-3------------3-----------3---------------- 
E-----------1>------------------------------- 

Intro2 
G--------------------------------------------------- 
D----33-22-00---3-2-0----------5>-7>-3>----5>-3>---- 
A–-3----------3-------3------3>---------3>---------- 
E-----------------------3------------------------3>- 

Verse 
G------------------------------------ 
D------2>--0>--5-3------2>--0>--3-5-- 
A –-3>---------------3>--------------- 
E------------------------------------ 

Chorus 
G --------------- 
D --------------- 
A –-3------------ 
E ------3--5--1-- 

Bridge 
G---------------------------------- 
D-----0--2--3------3>-2-----3>--5>- 
A–-3------------------------------- 
E---------------3>-------3>--------
            
Hard to play? Try these video lessons and learn fast. | Correct




comments powered by Disqus
↑ Back to top | Tablatures and chords are parodies/interpretations of the original songs. You may use it for private study, scholarship, research or language learning purposes only