>
 >
Mistaken

Mistaken Guitar Tabs

Save Ferris - Mistaken chords, tabs, tablatures, lyrics

Guitar lessons | Add/correct | Request | Top 50 tabs Artists:  A B C D E F G H I J K L M N O P Q R S T U V W X Y Z 0-9

Mistaken Guitar Tabs – Save Ferris

CD, Sheet music, Poster

Do you like Mistaken? Share with your friends now
Bass TabsChordsTabsUkulele


Play the song tuned down 1 fret 
This isnít the rhythm but its easy to figure out 
Play 2x

Gtr 1
           Db                          Gb
eb--------------------------------------------------------------
Bb-------------------------------------------------------------
Gb----7---7--7--7--7---------12--12--12--12-12---------
Db----7---7--7--7--7---------12--12--12--12-12---------
Ab----5---5--5--5--5---------10--10--10--10-10---------
Eb-------------------------------------------------------------

           Eb                           Gb
eb--------------------------------------------------------------
Bb-------------------------------------------------------------
Gb----9---9--9--9--9---------12--12--12--12-12---------
Db----9---9--9--9--9---------12--12--12--12-12---------
Ab----7---7--7--7--7---------10--10--10--10-10---------
Eb-------------------------------------------------------------

Gtr2
        Play 8x
eb--------------------------------------------------------------
Bb-------------------------------------------------------------
Gb-------7-7-7----9-9-9---11-11-11---14-14-14---------
Db-------------------------------------------------------------
Ab-------------------------------------------------------------
Eb-------------------------------------------------------------

Gtr1
Palm muted   play 2x
eb--------------------------------------------------------------
Bb-------------------------------------------------------------
Gb-------7--7--7--7------------------------------------------
Db-------7--7--7--7------------------------------------------
Ab-------5--5--5--5------------------------------------------
Eb-------------------------------------------------------------

Gtr2 

eb--------------------------------------------------------------
Bb-------------------------------------------------------------
Gb-------------------------------------------------------------
Db-----5h7p7---5hp7----------------------------------------
Ab-------------------------------------------------------------
Eb-------------------------------------------------------------

Verse 
Palm muted
               Db               Bb         Ab             Db
eb--------------------------------------------------------------
Bb-------------------------------------------------------------
Gb------7-7-7-7------------------------------7-7-7-7-------
Db------7-7-7-7----9-9-9-9----7-7-7-7----7-7-7-7-------
Ab------5-5-5-5----9-9-9-9----7-7-7-7----5-5-5-5-------
Eb-------------------7-7-7-7----5-5-5-5--------------------

Pre Chorus 
Play 2x
eb-------------------------------------------------------------
Bb------------------------------------------------------------
Gb-----9-9-9-9---12-12-12-12----------------------------
Db-----9-9-9-9---12-12-12-12----------------------------
Ab-----7-7-7-7---10-10-10-10----------------------------
Eb------------------------------------------------------------

Chorus

Gtr 1
           Db                          Gb
eb--------------------------------------------------------------
Bb-------------------------------------------------------------
Gb----7---7--7--7--7---------12--12--12--12-12---------
Db----7---7--7--7--7---------12--12--12--12-12---------
Ab----5---5--5--5--5---------10--10--10--10-10---------
Eb-------------------------------------------------------------

           Eb                           Gb
eb--------------------------------------------------------------
Bb-------------------------------------------------------------
Gb----9---9--9--9--9---------12--12--12--12-12---------
Db----9---9--9--9--9---------12--12--12--12-12---------
Ab----7---7--7--7--7---------10--10--10--10-10---------
Eb-------------------------------------------------------------

Gtr2
        Play 8x
eb--------------------------------------------------------------
Bb-------------------------------------------------------------
Gb-------7-7-7----9-9-9---11-11-11---14-14-14---------
Db-------------------------------------------------------------
Ab-------------------------------------------------------------
Eb-------------------------------------------------------------

Gtr1
Palm muted   play 2x
eb--------------------------------------------------------------
Bb-------------------------------------------------------------
Gb-------7--7--7--7------------------------------------------
Db-------7--7--7--7------------------------------------------
Ab-------5--5--5--5------------------------------------------
Eb-------------------------------------------------------------

Gtr2 

eb--------------------------------------------------------------
Bb-------------------------------------------------------------
Gb-------------------------------------------------------------
Db------5h7p5-------5h7p5---------------------------------
Ab-------------------------------------------------------------
Eb-------------------------------------------------------------

Verse 
Pre-Chorus
Chorus

Bridge

Gtr1
Strum these chords only once each time 
          Bb                     Bb        Ab        Gb                
Db
eb----------7------7------------------------------3----------------------
Bb------------7-----7-------------------------------3-------------------
Gb--------------7-----7-------------------------------4----7-----------
Db----9-------------------9------7--------5---------------7-----------
Ab----9-------------------9------7------ -5---------------5-----------
Eb----7-------------------7------5--------3----------------------------
        Bb          Ab          Gb      Db
eb------------------------------------------------------------------------
Bb-----------------------------------------------------------------------
Gb----------------------------------7-----------------------------------
Db---9---------7---------5--------7------------------------------------
Ab---9---------7---------5--------5------------------------------------
Eb---7---------5---------3---------------------------------------------

        Bb          Ab        Cb(from here on palm mute)
eb------------------------------------------------------------------------
Bb------------------------------------------------------------------------
Gb------------------------------------------------------------------------
Db---9---------7------10-10--10-10-10-10-10-10-------------------
Ab---9---------7------10--10-10-10-10-10-10-10-------------------
Eb---7---------5--------8--8--8---8--8---8---8--8 -------------------
            Bb                          Ab
eb------------------------------------------------------------------------
Bb-----------------------------------------------------------------------
Gb-----------------------------------------------------------------------
Db---9-9-9-9-9-9-9-9----7-7-7-7-7-7-7-7-7-7-7-7-7-7-7-7------
Ab---9-9-9-9-9-9-9-9----7-7-7-7-7-7-7-7-7-7-7-7-7-7-7-7------
Eb---7-7-7-7-7-7-7-7----5-5-5-5-5-5-5-5-5-5-5-5-5-5-5-5------

Solo
Play 8x
eb------------10------------------------------------------------
Bb--------7-------7--------------------------------------------
Gb----7--------------------------------------------------------
Db-------------------------------------------------------------
Ab-------------------------------------------------------------
Eb------------------------------------------------------------
   Play 2x                        Half bend
eb--------------------------------------------------------------
Bb----------5--7s10---8----7~-------------------------------
Gb-----7-------------------------------------------------------
Db-------------------------------------------------------------
Ab-------------------------------------------------------------
Eb-------------------------------------------------------------

eb------10-------------14---10--------14p10ó14p10-14p10-14p10----------
Bb----------10----8--------------10-----------------------------------------------
Gb-----------------------------------------------------------------------------------
Db-----------------------------------------------------------------------------------
Ab-----------------------------------------------------------------------------------
Eb-----------------------------------------------------------------------------------

Chorus and then end on Db





Comments


Popular Save Ferris tabs & chords
Goodbye Bass Tabs
Goodbye 1 Bass Tabs
Under Bass Tabs
Under 21 1 Bass Tabs
Come On Eileen Chords
Let Me In Chords
Mistaken Chords
Come On Eileen Tabs
Turn It Up Tabs
Come On Eileen Ukulele


Song lyrics



↑ Back to top | Tablatures and chords are parodies/interpretations of the original songs. You may use it for private study, scholarship, research or language learning purposes only
© 2014 AZChords.com Contact us | Privacy policy | DMCA | Add/correct tabs | Request tabs | Top 50 tabs