>
 >
Build Me Up Buttercup

Build Me Up Buttercup Guitar Tabs

Save Ferris - Build Me Up Buttercup chords, tabs, tablatures, lyrics

Guitar lessons | Add/correct | Request | Top 50 tabs Artists:  A B C D E F G H I J K L M N O P Q R S T U V W X Y Z 0-9

Build Me Up Buttercup Guitar Tabs – Save Ferris

CD, Sheet music, Poster

Do you like Build Me Up Buttercup? Share with your friends now
ChordsTabsUkulele
::::::::::::::::::::::::Chorus:::::::::::::::::::::::::


e-----------------------------------------------------|
B-----------------------------------------------------|
G-----------------------------------------------------|
D---------------10----------------------2-------------|
A---------------10----------------------2-------------|
E---------------8-----------------------0-------------|
Why do you 	build me up 		buttercup baby

e-----------------------------------------------------|
B-----------------------------------------------------|
G-----------------------------------------------------|
D---------------3-----------------------5-------------|
A---------------3-----------------------5-------------|
E---------------1-----------------------3-------------|
just to 	let me down and		mess me around

e-----------------------------------------------------|
B-----------------------------------------------------|
G-----------------------------------------------------|
D---------------10----------------------2-------------|
A---------------10----------------------2-------------|
E---------------8-----------------------0-------------|
and then 	worst of all you	never call baby

e-----------------------------------------------------|
B-----------------------------------------------------|
G-----------------------------------------------------|
D---------------3-----------------------5-------------|
A---------------3-----------------------5-------------|
E---------------1-----------------------3-------------|
when you 	say you will 	But 	I love you still

e-----------------------------------------------------|
B-----------------------------------------------------|
G-----------------------------------------------------|
D---------------10----------------------8-------------|
A---------------10----------------------8-------------|
E---------------8-----------------------6-------------|
I need 		you more than 		anyone darling

e-----------------------------------------------------|
B-----------------------------------------------------|
G-----------------------------------------------------|
D---------------3-----------------------12------------|
A---------------3-----------------------12------------|
E---------------1-----------------------10------------|
You 		know that I have from the start

e-----------------------------------------------------|
B-----------------------------------------------------|
G-----------------------------------------------------|
D---------------10----------------------5-------------|
A---------------10----------------------5-------------|
E---------------8-----------------------3-------------|
So 		build me up, 		buttercup, 
			
e-----------------------------------------------------|
B-----------------------------------------------------|
G-----------------------------------------------------|
D-------------------15--14--12--10------5-------------|
A-------------------15--14--12--10------5-------------|
E-------------------13--12--10--8-------3-------------|
don't break my heart



::::::::::::::::::::::::Verse 1::::::::::::::::::::::::


e-----------------------------------------------------|
B-----------------------------------------------------|
G-----------------------------------------------------|
D---------------10--------------5---------------------|
A---------------10--------------5---------------------|
E---------------8---------------3---------------------|
I'll be 	over at 	ten you told me

e-----------------------------------------------------|
B-----------------------------------------------------|
G-----------------------------------------------------|
D---------------8---------------5---------------------|
A---------------8---------------5---------------------|
E---------------6---------------3---------------------|
 		time and a-	gain

e-----------------------------------------------------|
B-----------------------------------------------------|
G-----------------------------------------------------|
D---------------10--------------3---------------------|
A---------------10--------------3---------------------|
E---------------8---------------1---------------------|
But you re 	late I wait a-	round and then

e-----------------------------------------------------|
B-----------------------------------------------------|
G-----------------------------------------------------|
D---------------10--------------5---------------------|
A---------------10--------------5---------------------|
E---------------8---------------3---------------------|
I 		run to the 	door

e-----------------------------------------------------|
B-----------------------------------------------------|
G-----------------------------------------------------|
D---------------8---------------3---------------------|
A---------------8---------------3---------------------|
E---------------6---------------1---------------------|
I can't 	take any-	more

e-----------------------------------------------------|
B-----------------------------------------------------|
G-----------------------------------------------------|
D---------------10--------------3---------------------|
A---------------10--------------3---------------------|
E---------------8---------------1---------------------|
It's not you 	you let me 	down again

e-----------------------------------------------------|
B-----------------------------------------------------|
G-----------------------------------------------------|
D--3---10--12------------------5----------------------|
A--3---10--12------------------5----------------------|
E--1---8---10------------------3----------------------|
(Hey Hey Hey) Baby baby 	try to find

e-----------------------------------------------------|
B-----------------------------------------------------|
G-----------------------------------------------------|
D--5---7---14-------------------7---------------------|
A--5---7---14-------------------7---------------------|
E--3---5---12-------------------5---------------------|
(Hey Hey Hey) A little time and I'll make you mine

e-----------------------------------------------------|
B-----------------------------------------------------|
G-----------------------------------------------------|
D--7---5---3----------12------------------------------|
A--7---5---3----------12------------------------------|
E--5---3---1----------10------------------------------|
(Hey Hey Hey) I'll be home

e-----------------------------------------------------|
B-----------------------------------------------------|
G-----------------------------------------------------|
D-------------------------------------5---------------|
A-------------------------------------5---------------|
E-------------------------------------3---------------|
I ll be be-side the phone waiting for you


Chorus

Verse 2
You are my toy but I could be the boy you adore
If you just let me know
Until you do I'm attracted to you all the more
Why do I need you so
Baby baby try to find
A little time and I'll make you mine
I'll be home I'll be beside the phone
Waiting for you

Chorus

Hey I tabbed this for all you power chord fans, yeah baby! Listen to The Foundations or Save Ferris versions for the rhythm. Rock on ^..^





Comments


Popular Save Ferris tabs & chords
Goodbye Bass Tabs
Goodbye 2 Bass Tabs
Lies Bass Tabs
Lies 1 Bass Tabs
Under 2 Bass Tabs
Under 21 1 Bass Tabs
Come On Eileen Tabs
Come On Eileen 1 Tabs
Turn It Up Tabs
Im Not Crying For You Ukulele


Song lyrics



↑ Back to top | Tablatures and chords are parodies/interpretations of the original songs. You may use it for private study, scholarship, research or language learning purposes only
© 2014 AZChords.com Contact us | Privacy policy | DMCA | Add/correct tabs | Request tabs | Top 50 tabs