>
 >
Unholy

Unholy Guitar Tabs

Savatage - Unholy chords, tabs, tablatures, lyrics

Guitar lessons | Add/correct | Request | Top 50 tabs Artists:  A B C D E F G H I J K L M N O P Q R S T U V W X Y Z 0-9

Unholy Guitar Tabs – Savatage

CD, Sheet music, Poster

Do you like Unholy? Share with your friends now
Tabs
----------------------------------------------------------------------------
----------------------------------------------------------------------------


Tuning: Standard

e|--------------------------------------------------------------------------|
b|--------------------------------------------------------------------------|
g|--12-14----12-16----12-14----12-16----12-14-16----11-14----11-12----11----|
d|14-------14-------14-------14-------14----------12-------12-------12------|
a|--------------------------------------------------------------------------|
e|--------------------------------------------------------------------------|


Repeat intro


_____________________________ ____________________
[1.                           [2.

-----------------------------|---------------------|
-----------------------------|---------------------|
-14----11-12----11-12-14-----|-14----11-12---------|
----12-------12--------------|----12-------12-0----|
-----------------------------|------------------2/-|
-----------------------------|---------------------|


----------------------------------------------------------------------------|
----------------------------------------------------------------------------|
----------------------------------------------------------------------------|
-------5-------9p5---9p5---9--9b--------5-------9p5---9p5---------7b--------|
-7---------7-------7-----7----------7-------7-------7--------7--------------|
----------------------------------------------------------------------------|


----------------------------------------------------------------------------|
----------------------------------------------------------------------------|
----------------------------------------------------------------------------|
-7-----4-------7p4---7p4------7b--------4-------7p4---7p4h7-------9b--------|
----5------5-------5-----5----------5-------5-------5-----------------------|
----------------------------------------------------------------------------|


----------------------------------------------------------------------------|
----------------------------------------------------------------------------|
----------------------------------------------------------------------------|
-9-----5-------9p5---9p5------9b--------5-------9p5---9p5---------7b--------|
----7------7-------7-----7----------7-------7-------7--------7--------------|
----------------------------------------------------------------------------|


|---------------------------------------------------------------------------|
|---------------------------------------------------------------------------|
|---------------------------------------------------------------------------|
|7------4-------7p4---7p4-----7b--------4-------7p4---7p4---------9---------|
|---5-------5-------5-----5---------5-------5-------5--------5--------------|
|---------------------------------------------------------------------------|

|---------------------------------------------------------------------------|
|---------------------------------------------------------------------------|
|---------------------------------------------------------------------------|
|-------------------------------------------------------9--------/14--------|
|---------------------------------------------------------------------------|
|---------------------------------------------------------------------------|

|---------------------------------------------------------------------------|
|---------------------------------------------------------------------------|
|---------------------11---12-------------11-12-14p12h14p12p11--------------|
|---------------------------------------------------------------------------|
|---------------------------------------------------------------------------|
|---------------------------------------------------------------------------|

|----------------------------------------------------------------------------|
|----------------------------------------------------------------------------|
|----------------------------------------------------------------------------|
|9-----5-------9p5---9p5------9b--------5-------9p5---9p5---------7b---------|
|---7------7-------7-----7----------7-------7-------7--------7---------------|
|----------------------------------------------------------------------------|

|---------------------------------------------------------------------------|
|--------------------------------------------------b15---r15b16-------------|
|-----------12p11h12p11h12p11h12p11-----------------------------------------|
|-------------------------------------12------------------------------------|
|---------------------------------------------------------------------------|
|---------------------------------------------------------------------------|

|---------------------------------------------------------------------------|
|---------------------------------------------------------------------------|
|---------------------------------------------------------------------------|
|7-----4-------7p4---7p4------7b--------4-------7p4---7p4h7-------9---------|
|---5------5-------5-----5----------5-------5-------5-----------------------|
|---------------------------------------------------------------------------|


|------------------------------------------12-14-15--15b17--------15--------|
|--------------r15--15b17----15b17------r15---------------------------------|
|---------------------------------------------------------------------------|
|---------------------------------------------------------------------------|
|---------------------------------------------------------------------------|
|---------------------------------------------------------------------------|

|---------------------------------------------------------------------------|
|---------------------------------------------------------------------------|
|---------------------------------------------------------------------------|
|9-----5-------9p5---9p5------9b--------5-------9p5---9p5---------7b--------|
|---7------7-------7-----7----------7-------7-------7--------7--------------|
|---------------------------------------------------------------------------|


|---14----------15-14h15p14p12h14h15----------------------------------------|
|------------------------------------15------x------------------------------|
|--------------------------------------------x------------------------------|
|---------------------------------------------------------------------------|
|---------------------------------------------------------------------------|
|---------------------------------------------------------------------------|

|---------------------------------------------------------------------------|
|---------------------------------------------------------------------------|
|---------------------------------------------------------------------------|
|7----4-------7p4---7p4------7b----7-------4---------------9----------------|
|---5------5-------5-----5--------------5-------5-----------7---------------|
|---------------------------------------------------------------------------|


----------------------------------------------------------------------------|
------------------------8----7----------------------------------------------|
-9----------------------7----7---12----7-----------------------7---/11--9-9-|
-9-------------------------------12----7-----------------------7---/11--9-9-|
-7---7---7-7-7---7-7-7-----------10----5---5---5-5-5---5-5-5---5---/-9--7-7-|
----------------------------------------------------------------------------|


----------------------------------------------------------------------------|
------------------------8----7----------------------------------------------|
-9----------------------7----7---12----7-----------------------7---/11--9-9-|
-9-------------------------------12----7-----------------------7---/11--9-9-|
-7---7---7-7-7---7-7-7-----------10----5---5---5-5-5---5-5-5---5---/-9--7-7-|
----------------------------------------------------------------------------|


----------------------------------------------------------------------------|
------------------------8----7----------------------------------------------|
-9----------------------7----7---12----7-----------------------7---/11--9-9-|
-9-------------------------------12----7-----------------------7---/11--9-9-|
-7---7---7-7-7---7-7-7-----------10----5---5---5-5-5---5-5-5---5---/-9--7-7-|
----------------------------------------------------------------------------|


-----------------------------------------------------------------------------|
------------------------8----7-----------------------------------------------|
-9----------------------7----7---12----7-----------------------7-------------|
-9-------------------------------12----7-----------------------7-------------|
-7---7---7-7-7---7-7-7-----------10----5---5---5-5-5---5-5-5---5-------------|
-----------------------------------------------------------------------------|


----------------------------3---------------7------------5------------------|
------4----/5-----------3---------3-------------7---------------------------|
-7---4----/5----5-------------------5--9-----------7-------5----------------|
-7---4----/5----5----------------------9-----------7-------5----------------|
-5---2----/3----3----------------------7-----------5-------3---3---3-3-3----|
----------------------------------------------------------------------------|


----------------------------3---------------7------------5------------------|
------------------------3---------3-------------7---------------------------|
-----------------5-------------------5--9-----------7-------5---------------|
-----------------5----------------------9-----------7-------5---------------|
-3-3-3---7--5----3----------------------7-----------5-------3---3---3-3-3---|
----------------------------------------------------------------------------|
  A

---------------|-------------------------------------------------------------|
---------------|-------------------------------------------------------------|
---------9--7--|o-2-----------------------2-----------------------2----------|
---------9--7--|o-2-----------------------2-----------------------2--------5-|
-3-3-3---7--5--|--0-----------------------0-----------------------0--------3-|
---------------|-----2-2-2--2-2-2--2-2-2-----2-2-2--2-2-2--2-2-2-----2-2-2---|

            _____________________________
           [Substitute lick 1 third time
----------------------------------------|
----------------------------------------|
--------4----------------------------2-o|
--------4----------------------------2-o|
--------2----------------------------0--|
-2-2-2------2---2-2-2--2-2-2--2-2-2-----|


Lick 1
----------------------------------------------------------------------------|
----------------------------------------------------------------------------|
----------------------------------------------------------------------------|
------------------------------------------5-------9p5---9p5---9b-------5----|
--------------------------------------7-------7-------7-----7------7------7-|
----------------2-2-2--2-2-2--2-2-2-----------------------------------------|


----------------------------------------------------------------------------|
----------------------------------------------------------------------------|
----------------------------------------------------------------------------|
-9p5---9p5---7^b-------4-------7p4---7p4---7b-------4-------7p4---7p4---7/9-|
-----7-----7-------5-------5-------5-----5------5-------5-------5-----5-----|
----------------------------------------------------------------------------|


----------------------------------------------------------------------------|
----------------------------------------------------------------------------|
----------------------------------------------------------------------------|
-----5-------9p5---9p5-----9^b-------5-------9p5---9p5---7b-------4---------|
-7-------7-------7-----7---------7-------7-------7-----7------5-------5-----|
----------------------------------------------------------------------------|


----------------------------------------|
----------------------------------------|
---------------------------4-------9----|
-7p4---7p4---7b-----0/--------------9---|
-----5-----5------------------------7---|
----------------------------------------|


----------------------------------------------------------------------------|
------------------------8----7----------------------------------------------|
-9----------------------7----7---12----7-----------------------7---/11--9-9-|
-9-------------------------------12----7-----------------------7---/11--9-9-|
-7---7---7-7-7---7-7-7-----------10----5---5---5-5-5---5-5-5---5---/-9--7-7-|
----------------------------------------------------------------------------|


*Play Fill 1 here.
|----------------------------------------------------------------------------|
|------------------------8-*--7----------------------------------------------|
|-9----------------------7----7---12----7-----------------------7---/11--9-9-|
|-9-------------------------------12----7-----------------------7---/11--9-9-|
|-7---7---7-7-7---7-7-7-----------10----5---5---5-5-5---5-5-5---5---/-9--7-7-|
|----------------------------------------------------------------------------|


Fill 1.
|----------------------------------------------------------------------------|
|----------------------------------------------------------------------------|
|------------------------7--/9/11/1211/14----1211/127/9----------------------|
|----------------------------------------------------------------------------|
|------------------------5--/7/-9/10-9/12----10-9/105/7----------------------|
|----------------------------------------------------------------------------|


----------------------------------------------------------------------------|
------------------------8----7----------------------------------------------|
-9----------------------7----7---12----7-----------------------7---/11--9-9-|
-9-------------------------------12----7-----------------------7---/11--9-9-|
-7---7---7-7-7---7-7-7-----------10----5---5---5-5-5---5-5-5---5---/-9--7-7-|
----------------------------------------------------------------------------|


----------------------------------------------------------------------------|
------------------------8----7----------------------------------------------|
-9----------------------7----7---12----7-----------------------7------------|
-9-------------------------------12----7-----------------------7------------|
-7---7---7-7-7---7-7-7-----------10----5---5---5-5-5---5-5-5---5------------|
----------------------------------------------------------------------------|


----------------------------3---------------7------------5------------------|
------4----/5-----------3---------3-------------7---------------------------|
-7---4----/5----5-------------------5--9-----------7-------5----------------|
-7---4----/5----5----------------------9-----------7-------5----------------|
-5---2----/3----3----------------------7-----------5-------3----------------|
----------------------------------------------------------------------------|


----------------------------3---------------7------------5------------------|
------------------------3---------3-------------7---------------------------|
---------9--7----5-------------------5--9-----------7-------5---------------|
---------9--7----5----------------------9-----------7-------5---------------|
---------7--5----3----------------------7-----------5-------3---3---3-3-3---|
----------------------------------------------------------------------------|


---------------|------------------------------------------------------------|
---------------|------------------------------------------------------------|
---------9--7--|o-2-----------------------2-----------------------2---------|
---------9--7--|o-2-----------------------2-----------------------2-------5-|
-3-3-3---7--5--|--0-----------------------0-----------------------0-------3-|
----------------|-----2-2-2--2-2-2--2-2-2-----2-2-2--2-2-2--2-2-2----2-2-2--|

            _____________________________
           [Substitute lick 1 third time
----------------------------------------|
----------------------------------------|
--------4----------------------------2-o|
--------4----------------------------2-o|
--------2----------------------------0--|
-2-2-2------2---2-2-2--2-2-2--2-2-2-----|


Lick 1
----------------------------------------------------------------------------|
----------------------------------------------------------------------------|
----------------------------------------------------------------------------|
------------------------------------------5-------9p5---9p5---9b-------5----|
--------------------------------------7-------7-------7-----7------7-----7--|
----------------2-2-2--2-2-2--2-2-2-----------------------------------------|

----------------------------------------------------------------------------|
----------------------------------------------------------------------------|
----------------------------------------------------------------------------|
-9p5---9p5---7^b-------4-------7p4---7p4---7b-------4-------7p4---7p4---7/9-|
-----7-----7-------5-------5-------5-----5------5-------5-------5-----5-----|
----------------------------------------------------------------------------|


--------------------------------------------------------------|
--------------------------------------------------------------|
--------------------------------------------------------------|
-----5-------9p5---9p5-----9^b-------5-------9p5---9p5---7b---|
-7-------7-------7-----7---------7-------7-------7-----7------|
--------------------------------------------------------------|

Rhythm part for under solo.
|---------------------------------------------------------------------------|
|---------------------------------------------------------------------------|
|---------------------------------------------------------------------------|
|----4-------7p4---7p4---7b-------4-------7p4---7p4---5--b------2-------5p2-|
|5-------5-------5-----5------5-------5-------5-----5-------3-------3-----3-|
|---------------------------------------------------------------------------|


|---------------------------------------------------------------------------|
|---------------------------------------------------------------------------|
|-------------------------------------4---------------------------4-----2---|
|5p2---5b-------2-------5p2---5p2-----4---------------------------4-----2---|
|----3------3-------3-------3-----3---2---2-2-2---2-2-2---2-2-2---2-----0---|
|---------------------------------------------------------------------------|

|---------------------------------------------------------------|
|---------------------------------------------------------------|
|-2-----------------------2-----------------------2---------5---|
|-2-----------------------2-----------------------2---------5---|
|-0-----------------------0-----------------------0---------3---|
|----2-2-2--2-2-2--2-2-2-----2-2-2--2-2-2--2-2-2-----2-2-2------|

|---------------------------------------|
|---------------------------------------|
|--------4----------------------------2-|
|--------4----------------------------2-|
|--------2----------------------------0-|
|-2-2-2------2---2-2-2--2-2-2--2-2-2----|

|---------------------------------------------------------------|
|---------------------------------------------------------------|
|-2-----------------------2-----------------------2---------5---|
|-2-----------------------2-----------------------2---------5---|
|-0-----------------------0-----------------------0---------3---|
|----2-2-2--2-2-2--2-2-2-----2-2-2--2-2-2--2-2-2-----2-2-2------|

|---------------------------------------|
|---------------------------------------|
|--------4----------------------------2-|
|--------4----------------------------2-|
|--------2----------------------------0-|
|-2-2-2------2---2-2-2--2-2-2--2-2-2----|

|---------------------------------------------------------------|
|---------------------------------------------------------------|
|-2-----------------------2-----------------------2---------5---|
|-2-----------------------2-----------------------2---------5---|
|-0-----------------------0-----------------------0---------3---|
|----2-2-2--2-2-2--2-2-2-----2-2-2--2-2-2--2-2-2-----2-2-2------|

|---------------------------------------|
|---------------------------------------|
|--------4----------------------------2-|
|--------4----------------------------2-|
|--------2----------------------------0-|
|-2-2-2------2---2-2-2--2-2-2--2-2-2----|

|-------------------------------------------------------------------------|
|-------------------------------------------------------------------------|
|-2-----------------------2-----------------------2---------5---------4---|
|-2-----------------------2-----------------------2---------5---------4---|
|-0-----------------------0-----------------------0---------3---------2---|
|----2-2-2--2-2-2--2-2-2-----2-2-2--2-2-2--2-2-2-----2-2-2-----2-2-2------|

|---------------------------------------------------------------------------|
|---------------------------------------------------------------------------|
|-----------------------------4--------2------------------------------------|
|4----------------------------4--------2-------4-----4-----4--------4-----4-|
|4----------------------------2--------0-------4-----4-----4--------4-----4-|
|2---2-2-2----2-2-2---2-2-2--------------------2--0--2--0--2--0--0--2--0--2-|


|---------------------------------------------------------------------------|
|---------------------------------------------------------------------------|
|------------4-------2------------------------------------------------------|
|---4--------4-------2-------4-----4-----4--------4-------4-----4-----------|
|---4--------2-------0-------4-----4-----4--------4-------4-----4--------7--|
|0--2--0--0------------------2--0--2--0--2--0--0--2----0--2--0--2--0--0-----|

Solo guitar.
|----------------------------------------------------------------------------|
|----------------------------------------------------------------------------|
|/1.8^////0----16b18r16---b18-------16b18r16---b18-------16b18r16---b18------|
|----------------------------------------------------------------------------|
|----------------------------------------------------------------------------|
|----------------------------------------------------------------------------|
///=vib. /w trem.bar

|---------------------------------------------------------------------------|
|-----------------------------------------------14-17-17-15-14-15-14-17p14--|
|16b19-----16b18----r16p14-------------------14-----------------------------|
|--------------------------16----///----16----------------------------------|
|---------------------------------------------------------------------------|
|---------------------------------------------------------------------------|


|---------------------------------------------------------------------------|
|---------------------------------------------------------------------------|
|14-16p1413h14p1311----11---------------------------------------------------|
|---------------------14----14-14p12h14p12p11--------------11--9b--------9b-|
|-------------------------------------------------9---12-------------12-----|
|---------------------------------------------------------------------------|


|--------------------------------------------------------------17b19----r17-|
|-------------------------11b--------------x---17b19r17--b19----------------|
|-------------------------11b----9///---------------------------------------|
|---------------------------------------------------------------------------|
|--12-----11---12p11-9^-----------------------------------------------------|
|---------------------------------------------------------------------------|


|17p16---16b-r169/17-17-16--17---19---19b21-----19b21r19p17h19p16-16-17-17--|
|---------------------------------------------------------------------------|
|---------------------------------------------------------------------------|
|---------------------------------------------------------------------------|
|---------------------------------------------------------------------------|

|----------------------------------------------------------------------------|
|19-17-16-17-17-14-16-14-16-16-17-16-14-------------14-16-17-16-14-----------|
|---------------------------------------17-14-16-17----------------17-14-16--|
|----------------------------------------------------------------------------|
|----------------------------------------------------------------------------|
|----------------------------------------------------------------------------|
|----------------------------------------------------------------------------|


|---14-16-17-16-14-------------14h16h17p16p14-------------------------------|
|17----------------17p14-16h17----------------17-16-14----------------------|
|---------------------------------------------------------------------------|
|---------------------------------------------------------------------------|
|---------------------------------------------------------------------------|
|---------------------------------------------------------------------------|


|----------------------------------0-----------------------------------------|
|----------------------------------0------------------17b21----r17-----------|
|16p14h16p14h16b20r16p14h16p14----0------16b18///----------------------------|
|----------------------------------------------------------------------------|
|----------------------------------------------------------------------------|
|----------------------------------------------------------------------------|


|---------------------------17b19---r17---17b19////---17b19--r17--17p16------|
|17b19r17b21r175/16----------------------------------------------------------|
|-----------------------0----------------------------------------------------|
|----------------------------------------------------------------------------|
|----------------------------------------------------------------------------|
|----------------------------------------------------------------------------|


|-16b17r16b17---16b17r16p14b16p14----14-------------------------------------|
|---------------------------------17----17b19r17p14h17----14----------------|
|------------------------------------------------------16----16b18----------|
|---------------------------------------------------------------------------|
|---------------------------------------------------------------------------|
|---------------------------------------------------------------------------|


|-------------------------------------------17-21-19-22-21b---r21----22-----|
|-------------------------------------14/19---------------------------------|
|r16p14h16p14----------------------14---------------------------------------|
|-------------16----------------16------------------------------------------|
|----------------------------16---------------------------------------------|
|--------------------14---17------------------------------------------------|


|21----22----22b24----r22p21h22p21------------------------------------------|
|---------------------------------------------------------------------------|
|---------------------------------------------------------------------------|
|---------------------------------------------------------------------------|
|---------------------------------------------------------------------------|
|----------------------------------------12---------------------------------|

Lick 1
------------------------------------------|
------------------------------------------|
------------------------------------------|
------5-------9p5---9p5---9b-------5------|
--7-------7-------7-----7------7-------7--|
------------------------------------------|


----------------------------------------------------------------------------|
----------------------------------------------------------------------------|
----------------------------------------------------------------------------|
-9p5---9p5---7^b-------4-------7p4---7p4---7b-------4-------7p4---7p4---7/9-|
-----7-----7-------5-------5-------5-----5------5-------5-------5-----5-----|
----------------------------------------------------------------------------|


----------------------------------------------------------------------------|
----------------------------------------------------------------------------|
----------------------------------------------------------------------------|
-----5-------9p5---9p5-----9^b-------5-------9p5---9p5---7b-------4---------|
-7-------7-------7-----7---------7-------7-------7-----7------5-------5-----|
----------------------------------------------------------------------------|


---------------------------------------|
---------------------------------------|
-------------------------------------2-|
-7p4---7p4---7b-------4-------7p4----2-|
-----5-----5------5-------5-------5--0-|
---------------------------------------|

--------------------------------------------------------------|
--------------------------------------------------------------|
--2-----------------------2-----------------------2---------5-|
--2-----------------------2-----------------------2---------5-|
--0-----------------------0-----------------------0---------3-|
-----2-2-2--2-2-2--2-2-2-----2-2-2--2-2-2--2-2-2-----2-2-2----|

----------------------------------------|
----------------------------------------|
---------4----------------------------2-|
---------4----------------------------2-|
---------2----------------------------0-|
--2-2-2------2---2-2-2--2-2-2--2-2-2----|

-------------------------------------------------------------------------|
-------------------------------------------------------------------------|
--2-----------------------2-----------------------2---------5----------4-|
--2-----------------------2-----------------------2---------5----------4-|
--0-----------------------0-----------------------0---------3----------2-|
-----2-2-2--2-2-2--2-2-2-----2-2-2--2-2-2--2-2-2-----2-2-2------2-2-2----|

----------------------------------------------------------------------------|
----------------------------------------------------------------------------|
----------------------------------------------------------------------------|
-------------------------------------------------------------4----4----4--4-|
-------------------------------------------------------------4----4----4--4-|
-2-2-2---2-2-2---2-2-2---2-2-2---2-2-2---2-2-2---2-2-2---2-2-2----2----2--2-|

Outro.
----------------------------------------------------------------------------|
----------------------------------------------------------------------------|
----------------------------------------------------------------------------|
----------------------------------------------------------------------------|
-2-----2--4--5---------------------2--4----4--4--2----2--2--4----4--4--2--2-|
----------------3---5-3h5p3p2h3----0--2----2--2--0----0--0--2----2--2--0--0-|

Play Fill 2
----------------------------------------------------------------------------|
----------------------------------------------------------------------------|
----------------------------------------------------------------------------|
----------------------------------------------------------------------------|
-2-----2--4--5---------------------2--4----4--4--2----2--2--4----4--4--2--2-|
----------------3---5-3h5p3p2h3----0--2----2--2--0----0--0--2----2--2--0--0-|


Fill 2.
----------------------------------------------------------------------------|
----------------------------------------------------------------------------|
-4b6---r4p2-------4b6---r4p2--------4b6---r4p2-----4b6r4--------------------|
----------------------------------------------------------------------------|
----------------------------------------------------------------------------|
----------------------------------------------------------------------------|

Play Fill 3
----------------------------------------------------------------------------|
----------------------------------------------------------------------------|
----------------------------------------------------------------------------|
----------------------------------------------------------------------------|
-2-----2--4--5---------------------2--4----4--4--2----2--2--4----4--4--2--2-|
----------------3---5-3h5p3p2h3----0--2----2--2--0----0--0--2----2--2--0--0-|


Fill 3.
-----------------17-16b--------17-16b---------------------------------------|
-17b19r17-----14------------14----------------------------------------------|
----------------------------------------------------------------------------|
----------------------------------------------------------------------------|
----------------------------------------------------------------------------|
--------------------------------------------14------------------------------|

Play Fill 4
----------------------------------------------------------------------------|
----------------------------------------------------------------------------|
----------------------------------------------------------------------------|
----------------------------------------------------------------------------|
-2-----2--4--5---------------------2--4----4--4--2----2--2--4----4--4--2--2-|
----------------3---5-3h5p3p2h3----0--2----2--2--0----0--0--2----2--2--0--0-|


Fill 4.
-----------------t14p2h5--t14p5p2--t16p5p2--t17p5p2h5--t16p5p2--t16b17r16---|
----------------------------------------------------------------------------|
-4b6r4p2h4b5r4--------------------------------------------------------------|
----------------------------------------------------------------------------|
----------------------------------------------------------------------------|
----------------------------------------------------------------------------|

----------------------------------------------------------------------------|
----------------------------------------------------------------------------|
-4-----4--6--7--------------------------------------------------------------|
-4-----4--6--7--------------------------------------------------------------|
-2-----2--4--5---------------------2--4----4--4--2----2--2--4----4--4--2--2-|
----------------5---5-3h5p3p2h3----0--2----2--2--0----0--0--2----2--2--0--0-|


-------------------------------|
-------------------------------|
-------------------------------|
-------------------------------|
-2--4----4--4--2----2--2--4----|
-0--2----2--2--0----0--0--2----|





Comments


Popular Savatage tabs & chords
24 Hours Ago Bass Tabs
New York City Don Mean Nothing Bass Tabs
The Ocean Bass Tabs
Alone You Breath Chords
Complaint In The System Tabs
Edge Of Thorns 3 Tabs
Fountain Of Youth Tabs
Silk And Steel Tabs
The Rumour Jesus Tabs
Watching You Fall Tabs


Song lyrics



↑ Back to top | Tablatures and chords are parodies/interpretations of the original songs. You may use it for private study, scholarship, research or language learning purposes only
© 2014 AZChords.com Contact us | Privacy policy | DMCA | Add/correct tabs | Request tabs | Top 50 tabs