>
 >
Strange Wings

Strange Wings Guitar Tabs

Savatage - Strange Wings chords, tabs, tablatures, lyrics

Guitar lessons | Add/correct | Request | Top 50 tabs Artists:  A B C D E F G H I J K L M N O P Q R S T U V W X Y Z 0-9

Strange Wings Guitar Tabs – Savatage

CD, Sheet music, Poster

Do you like Strange Wings? Share with your friends now
Tabs
hey this is my first tab so yea i hope yall like it, im positive its correct, and im only 13!



D|------------------------|
A|-5-5--8---8---1-1-------|
D|-7-7--10--10--3-3-X2----|
G|------------------------|
B|------------------------|
E|------------------------|

first lead
D|-----------------------------------------------------------------|
A|-----------------------------------------------------------------|
D|-----------------------------------------------------------------|
G|--------------/12-12-10h12-12-10h12h10-9-10-9--------------------|
B|-/13-13-11h13----------------------------------------------------|
E|-----------------------------------------------------------------|

D|-----------------------------------------------------------------|
A|-----------------------------------------------------------------|
D|--------10-------------------------------------------------------|
G|9-9-10h9--9-9-10h9-12-10-----------------------------------------|
B|------------------------------------------13h10----13h10----13h10|
E|------------------------/13-12-12-13--13h10----13h10----13h10----|

D|-----------------------------------------------------------------|
A|-----------------------------------------------------------------|
G|-----------------------------------------------------------------|
D|-----------------------------------------------------------------|
B|----13h10----13h10----------------13---15----15----15----15------|
E|13h10----13h10-----13h1013h1013h10-------17h13-17h13-17h13-------|

D|---------------------|
A|---------------------|
G|---------------------|
D|---------------------|
B|----15-----15(15)----|
E|17h13--17h13---------|

D|--xxxx-----xxxx------xxxx-----xxxx-8--3---|
A|5-xxxx----5xxxx-3---5xxxx----5xxxx-10-5-x3|
G|7-xxxx-10-7xxxx-----7xxxx-10-7xxxx--------|
D|-------10-----------------10--------------|
B|------------------8-----------------------|
E|-----------------8------------------------|

D|----------------------------------------xxxx--------------------------|
A|5-5-8-8--1-1-8--7-8--7-8--4-5-5-8-8--1-1xxxx1-3-3---------------------|
G|7-7-1010-3-3----------------7-7-1010-3-3xxxx3-5-5--x3-----------------|
D|-------------10-9-10-9-10-6-------------------------------------------|
B|----------------------------------------------------------------------|
E|----------------------------------------------------------------------|

D|--xxxx-----xxxx------xxxx-----xxxx-8--3---|
A|5-xxxx----5xxxx-3---5xxxx----5xxxx-10-5-x3|
G|7-xxxx-10-7xxxx-----7xxxx-10-7xxxx--------|
D|-------10-----------------10--------------|
B|------------------8-----------------------|
E|-----------------8------------------------|

D|----------------------------------------xxxx--------------------------|
A|5-5-8-8--1-1-8--7-8--7-8--4-5-5-8-8--1-1xxxx1-3-3---------------------|
G|7-7-1010-3-3----------------7-7-1010-3-3xxxx3-5-5--x3-----------------|
D|-------------10-9-10-9-10-6-------------------------------------------|
B|----------------------------------------------------------------------|
E|----------------------------------------------------------------------|


D|3-5-3-5-3-5-5-3--3-5-3-5-3-5-5------|
A|3-5-3-5-3-5-5-3--3-5-3-5-3-5-5-1----|
D|-------------------------------3-x4-|
G|------------------------------------|
B|------------------------------------|
E|------------------------------------|

D|---------------------------------5-|
A|8-8-8-8--8-8--8-8----5555-55-55--5-|
D|10101010-1010-1010x2-7777-77-77x2--|
G|-----------------------------------|
B|-----------------------------------|
E|-----------------------------------|

D|----------------------------------------xxxx--------------------------|
A|5-5-8-8--1-1-8--7-8--7-8--4-5-5-8-8--1-1xxxx1-3-3---------------------|
G|7-7-1010-3-3----------------7-7-1010-3-3xxxx3-5-5--x8-----------------|
D|-------------10-9-10-9-10-6-------------------------------------------|
B|----------------------------------------------------------------------|
E|----------------------------------------------------------------------|





Comments


Popular Savatage tabs & chords
Power Of The Night Bass Tabs
Prelude To Madness Bass Tabs
All That I Bleed Chords
Edge Of Thorns Tabs
Hall Of The Mountain King 1 Tabs
Prelude To Madness Tabs
Price You Pay Tabs
The Dungeons Are Calling Tabs
Tonight He Grins Again Intro Tabs
Edge Of Thorns Ukulele


Song lyrics



↑ Back to top | Tablatures and chords are parodies/interpretations of the original songs. You may use it for private study, scholarship, research or language learning purposes only
© 2014 AZChords.com Contact us | Privacy policy | DMCA | Add/correct tabs | Request tabs | Top 50 tabs