>
 >
Fountain Of Youth

Fountain Of Youth Guitar Tabs

Savatage - Fountain Of Youth chords, tabs, tablatures, lyrics

Guitar lessons | Add/correct | Request | Top 50 tabs Artists:  A B C D E F G H I J K L M N O P Q R S T U V W X Y Z 0-9

Fountain Of Youth Guitar Tabs – Savatage

CD, Sheet music, Poster

Do you like Fountain Of Youth? Share with your friends now
Tabs
-3-----------------3-3----(3)-(3)--------------------------------------------|
-3-----------------3-3-----3---3---------------------------------------------|
------5---4---5-----------5---4-----------7/9---9/10-10/12--14-12-10/12\10---|
-5------------------------5---5----0-----------------------------------------|
-5--------------5------------------0------5/7---7/8---8/10--12-10--8/10\8----|
-5--------------5------------------0--0-0----0-0---0-0---0-0-----------------|

----------------3--------------------3-3----(3)-(3)-|
----------------3--------------------3-3-----3---3--|
-9/10\9-7/9\7----------5---4---5-------------5---4--|
----------------5---5------------------------5---5--|
-7/8\7--5/7\5---5------------------5----------------|
----------------5------------------5----------------|

-----------------------------------------------------|
-----------------------------------------------------|
--------------7/8\7--5/7\5--3------3-----3/5\3-2/3\2-|
--------7-------------------3------3------------h-p--|
-0------5-----5/6\5--3/5\3--1--1-1-1-1-1-1/3\1-0^1^0-|
-0--0-0---0-0----------------------------------------|
             Do you suffer       from the fears of growing old

-----------------------------------------------------|
-----------------------------------------------------|
--------------7/8\7--5/7\5--3------3-----3/5\3-2/3\2-|
--------7-------------------3------3------------h-p--|
-0------5-----5/6\5--3/5\3--1--1-1-1-1-1-1/3\1-0^1^0-|
-0--0-0---0-0----------------------------------------|
            Do  you  wonder      what might happen to your soul

-----------------------------------------------------|
-----------------------------------------------------|
--------------7/8\7--5/7\5--3------3-----3/5\3-2/3\2-|
--------7-------------------3------3------------h-p--|
-0------5-----5/6\5--3/5\3--1--1-1-1-1-1-1/3\1-0^1^0-|
-0--0-0---0-0----------------------------------------|
       There is a magic place, that just might solve the case

------------------------------------------------------------3--------------|
------------------------------------------------------------3---------5----|
--------------7/8\7--5/7\5--3------3-----3/5\3-2/3\2--------4---------6----|
--------7-------------------3------3------------h-p----5----5----7----7----|
-0------5-----5/6\5--3/5\3--1--1-1-1-1-1-1/3\1-0^1^0---5-5--5----7-7--7----|
-0--0-0---0-0------------------------------------------5-5--5----7-7--7----|
    and it's just a mystery    to the mind    Yeahhh

            p.m.          ====|  |==================|
------------------------------------------------------|
------------------------------------------------------|
-7-------------3---5----------------------------------|
-7----7--------3---3----------------------------------|
-5----5--------1-----0-----0-----1-0-1-3-1-0-1-0------|
-0----0---0-0--------0-0-0-0-0-0------------------0-0-|
                        The fountain of youth

-------------------------------------------------------|
-------------------------------------------------------|
-7-------------3---5-------------8-7-8-10-8-7-8-7------|
-7----7--------3---3-----------------------------------|
-5----5--------1-----0-----0-----6-5-6-8--6-5-6-5------|
-0----0---0-0--------0-0-0-0-0-0-------------------0-0-|
         that's where we might find the truth

            p.m.          ====|  |==================|
------------------------------------------------------|
------------------------------------------------------|
-7-------------3---5----------------------------------|
-7----7--------3---3----------------------------------|
-5----5--------1-----0-----0-----1-0-1-3-1-0-1-0------|
-0----0---0-0--------0-0-0-0-0-0------------------0-0-|
     it's gonna put your head in a rush

            p.m.          ====|  |==================|
-------------------------------------------------|
-------------------------------------------------|
-7-------------3---5-----------------------------|
-7----7--------3---3-----------------------------|
-5----5--------1-----0-----0-----1-0-1-3-1-0-1-0-|
-0----0---0-0--------0-0-0-0-0-0-----------------|
      and the science is working on us

--3--------------------3-3----(3)-(3)-|
--3--------------------3-3-----3---3--|
---------5---4---5-------------5---4--|
--5---5------------------------5---5--|
--5------------------5----------------|
--5------------------5----------------|

-----------------------------------------------------|
-----------------------------------------------------|
--------------7/8\7--5/7\5--3------3-----3/5\3-2/3\2-|
--------7-------------------3------3------------h-p--|
-0------5-----5/6\5--3/5\3--1--1-1-1-1-1-1/3\1-0^1^0-|
-0--0-0---0-0----------------------------------------|
             Ponce De' Leon        And his search for gold

-----------------------------------------------------|
-----------------------------------------------------|
--------------7/8\7--5/7\5--3------3-----3/5\3-2/3\2-|
--------7-------------------3------3------------h-p--|
-0------5-----5/6\5--3/5\3--1--1-1-1-1-1-1/3\1-0^1^0-|
-0--0-0---0-0----------------------------------------|
           Indian Tales      Of never growing old

-----------------------------------------------------|
-----------------------------------------------------|
--------------7/8\7--5/7\5--3------3-----3/5\3-2/3\2-|
--------7-------------------3------3------------h-p--|
-0------5-----5/6\5--3/5\3--1--1-1-1-1-1-1/3\1-0^1^0-|
-0--0-0---0-0----------------------------------------|
  By the walls and the springs  Hear the voice of yesterday sing

------------------------------------------------------------3--------------|
------------------------------------------------------------3--------------|
--------------7/8\7--5/7\5--3------3-----3/5\3-2/3\2--------4--------------|
--------7-------------------3------3------------h-p----5----5----7----5----|
-0------5-----5/6\5--3/5\3--1--1-1-1-1-1-1/3\1-0^1^0---5-5--5----7-7--3----|
-0--0-0---0-0------------------------------------------5-5--5----7-7-------|
    and it's just a mystery    to the mind    Yeahhh

            p.m.          ====|  |==================|
------------------------------------------------------|
------------------------------------------------------|
-7-------------3---5----------------------------------|
-7----7--------3---3----------------------------------|
-5----5--------1-----0-----0-----1-0-1-3-1-0-1-0------|
-0----0---0-0--------0-0-0-0-0-0------------------0-0-|
                        The fountain of youth

-------------------------------------------------------|
-------------------------------------------------------|
-7-------------3---5-------------8-7-8-10-8-7-8-7------|
-7----7--------3---3-----------------------------------|
-5----5--------1-----0-----0-----6-5-6-8--6-5-6-5------|
-0----0---0-0--------0-0-0-0-0-0-------------------0-0-|
         that's where we might find the truth

            p.m.          ====|  |==================|
------------------------------------------------------|
------------------------------------------------------|
-7-------------3---5----------------------------------|
-7----7--------3---3----------------------------------|
-5----5--------1-----0-----0-----1-0-1-3-1-0-1-0------|
-0----0---0-0--------0-0-0-0-0-0------------------0-0-|
     it's gonna put your head in a rush

            p.m.          ====|  |==================|
-------------------------------------------------|
-------------------------------------------------|
-7-------------3---5-----------------------------|
-7----7--------3---3-----------------------------|
-5----5--------1-----0-----0-----1-0-1-3-1-0-1-0-|
-0----0---0-0--------0-0-0-0-0-0-----------------|
      and the science is working on us

-3-----------------3-3----(3)-(3)------------------------------------------|
-3-----------------3-3-----3---3-------------------------------------------|
-------5---4---5-----------5---4-----------5/7---7/9---9/10-10\9-10\9/10---|
-5-------------------------5---5----0--------------------------------------|
-5---------------5------------------0------3/5---5/7---7/8---8\7--8\7/8----|
-5---------------5------------------0--0-0----0-0---0-0---0-0--------------|

----------------3--------------------3-3----(3)-(3)-|
----------------3--------------------3-3-----3---3--|
-9/10\9-7/9\7----------5---4---5-------------5---4--|
----------------5---5------------------------5---5--|
-7/8\7--5/7\5---5------------------5----------------|
----------------5------------------5----------------|

----------------------------------------------------------|
----------------------------------------------------------|
----------------------------------------------------------|
--------7-------------7-------------7------8--10--7--8-7--|
--------5-------------5-------------5------6--8---5--6-5--|
-0--0-0-0--0-0-0--0-0-0--0-0-0--0-0-0--0-0--------0--0-0--|

---------------------------------------------------|
---------------------------------------------------|
---------------------------------------------------|
-7-------------7-------------7------8--10--7--8-7--|
-5-------------5-------------5------6--8---5--6-5--|
-0--0-0-0--0-0-0--0-0-0--0-0-0--0-0--------0--0-0--|

---------------------------------------------------|
---------------------------------------------------|
---------------------------------------------------|
-7-------------7-------------7------8--10--7--8-7--|
-5-------------5-------------5------6--8---5--6-5--|
-0--0-0-0--0-0-0--0-0-0--0-0-0--0-0--------0--0-0--|

---------------------------------------------------|
---------------------------------------------------|
------------------------------------------------5--|
-7-------------7-------------7------8--10--7--8-5--|
-5-------------5-------------5------6--8---5--6-3--|
-0--0-0-0--0-0-0--0-0-0--0-0-0--0-0--------0--0----|

---------------------------------------------------|
---------------------------------------------------|
---------------------------------------------------|
-5-------------5-------------5------8--10--7--8-7--|
-3--3-3-3--3-3-3--3-3-3--3-3-3--3-3-6--8---5--6-5--|
-0-------------0---------------------------0--0-0--|

---------------------------------------------------|
---------------------------------------------------|
------------------------------------------------5--|
-7-------------7-------------7------8--10--7--8-5--|
-5-------------5-------------5------6--8---5--6-3--|
-0--0-0-0--0-0-0--0-0-0--0-0-0--0-0--------0--0----|

---------------------------------------------------|
---------------------------------------------------|
---------------------------------------------------|
-5-------------5-------------5------8--10--7--8-7--|
-3--3-3-3--3-3-3--3-3-3--3-3-3--3-3-6--8---5--6-5--|
-0-------------0---------------------------0--0-0--|

------------3--------------------3-3----(3)-(3)-|
------------3--------------------3-3-----3---3--|
-------------------5---4---5-------------5---4--|
-5-3--------5---5------------------------5---5--|
-3-1--5-----5------------------5----------------|
------5-----5------------------5----------------|

---------------------------------------------------|
---------------------------------------------------|
------------------------------------------------5--|
-7-------------7-------------7------8--10--7--8-5--|
-5-------------5-------------5------6--8---5--6-3--|
-0--0-0-0--0-0-0--0-0-0--0-0-0--0-0--------0--0----|

-----------------------------------------------------|
-----------------------------------------------------|
--------------7/8\7--5/7\5--3------3-----3/5\3-2/3\2-|
--------7-------------------3------3------------h-p--|
-0------5-----5/6\5--3/5\3--1--1-1-1-1-1-1/3\1-0^1^0-|
-0--0-0---0-0----------------------------------------|
             It is part of the power      Power of the night

-----------------------------------------------------|
-----------------------------------------------------|
--------------7/8\7--5/7\5--3------3-----3/5\3-2/3\2-|
--------7-------------------3------3------------h-p--|
-0------5-----5/6\5--3/5\3--1--1-1-1-1-1-1/3\1-0^1^0-|
-0--0-0---0-0----------------------------------------|
   It's where the sun bakes down the   who try to get it right

-----------------------------------------------------|
-----------------------------------------------------|
--------------7/8\7--5/7\5--3------3-----3/5\3-2/3\2-|
--------7-------------------3------3------------h-p--|
-0------5-----5/6\5--3/5\3--1--1-1-1-1-1-1/3\1-0^1^0-|
-0--0-0---0-0----------------------------------------|
       it is a magic place I saw the vision of a face

-----------------------------------------------------|
-----------------------------------------------------|
--------------7/8\7--5/7\5--3------3-----3/5\3-2/3\2-|
--------7-------------------3------3------------h-p--|
-0------5-----5/6\5--3/5\3--1--1-1-1-1-1-1/3\1-0^1^0-|
-0--0-0---0-0----------------------------------------|
          It solved the mystery in my mind

-----------------------------------------------------------|
-----------h-------------h-------------h-------------h-p---|
----------7^8-----------3^4-----------0^1-----------0^1^0--|
----10------------6--------------3------------1------------|
-------10------------6--------------3------------1---------|
-10------------6--------------3-------------1--------------|

--------------------------------------------------------------------|
-----------h-------------h-------------h-p--------------------------|
----------7^8-----------3^4-----------0^1^0-----------2-2--2--------|
----10------------6--------------3--------------------2-2--2-----5--|
-------10------------6--------------3--------5-5--5---0-0--0---5-3--|
-10------------6--------------3--------------5-5--5------------5----|

            p.m.          ====|  |==================|
------------------------------------------------------|
------------------------------------------------------|
-7-------------3---5----------------------------------|
-7----7--------3---3----------------------------------|
-5----5--------1-----0-----0-----1-0-1-3-1-0-1-0------|
-0----0---0-0--------0-0-0-0-0-0------------------0-0-|
                        The fountain of youth

-------------------------------------------------------|
-------------------------------------------------------|
-7-------------3---5-------------8-7-8-10-8-7-8-7------|
-7----7--------3---3-----------------------------------|
-5----5--------1-----0-----0-----6-5-6-8--6-5-6-5------|
-0----0---0-0--------0-0-0-0-0-0-------------------0-0-|
         that's where we might find the truth

            p.m.          ====|  |==================|
------------------------------------------------------|
------------------------------------------------------|
-7-------------3---5----------------------------------|
-7----7--------3---3----------------------------------|
-5----5--------1-----0-----0-----1-0-1-3-1-0-1-0------|
-0----0---0-0--------0-0-0-0-0-0------------------0-0-|
     it's gonna put your head in a rush

            p.m.          ====|  |==================|
-------------------------------------------------|
-------------------------------------------------|
-7-------------3---5-----------------------------|
-7----7--------3---3-----------------------------|
-5----5--------1-----0-----0-----1-0-1-3-1-0-1-0-|
-0----0---0-0--------0-0-0-0-0-0-----------------|
      and the science is working on us

---------------------------------------------------|
---------------------------------------------------|
---------------------------------------------------|
-7-------------7-------------7------8--10--7--8-7--|
-5-------------5-------------5------6--8---5--6-5--|
-0--0-0-0--0-0-0--0-0-0--0-0-0--0-0--------0--0-0--|

---------------------------------------------------|
---------------------------------------------------|
---------------------------------------------------|
-7-------------7-------------7------8--10--7--8-7--|
-5-------------5-------------5------6--8---5--6-5--|
-0--0-0-0--0-0-0--0-0-0--0-0-0--0-0--------0--0-0--|

------------------------------------------------|
------------------------------------------------|
------------------------------------------------|
-7-------------7-------------7------8--10--7--8-|
-5-------------5-------------5------6--8---5--6-|
-0--0-0-0--0-0-0--0-0-0--0-0-0--0-0--------0--0-|





Comments


Popular Savatage tabs & chords
Awaken Bass Tabs
New York City Don Mean Nothing Bass Tabs
Edge Of Thorns Chords
All That I Bleed 1 Tabs
Blackjack Guillotine Tabs
Dead Winter Dead Tabs
Jesus Saves 2 Tabs
Lights Out Tabs
Overture Tabs
Silk And Steel Tabs


Song lyrics



↑ Back to top | Tablatures and chords are parodies/interpretations of the original songs. You may use it for private study, scholarship, research or language learning purposes only
© 2014 AZChords.com Contact us | Privacy policy | DMCA | Add/correct tabs | Request tabs | Top 50 tabs