» » »

Savage Garden, Two Beds And A Coffee Machine Tabs (ver.2)

Artists:  A B C D E F G H I J K L M N O P Q R S T U V W X Y Z # 

Two Beds And A Coffee Machine Tabs (ver.2)

Savage Garden Tabs
Rating:
4/5 (4 votes)
Hard to play? Try these video lessons and learn fast.
                (Intro)
SONG NAME - Band Name
-------------------------------------------------------------------------------

Tuning:

e|----------------------------------------------------------------------------------|
B|----------------0-----2-----0-------------------------2------0--------------------|
G|------------2-------------------2---------------------------------2----2----------|
D|--------2----------------------------2----4---------------------------------------|
A|----0-----------------------------------------------------------------------------|
E|----------------------------------------------------------------------------------|

e|----------------------------------------------------------------------------------|
B|--------------0-----2-----0------------------2----0-------------------------------|
G|---------2--------------------2------------------------2--------------------------|
D|----2------------------------------2----4-----------------------------------------|
A|----------------------------------------------------------------------------------|
E|-------------------------------------------------------------2----4----5----------|

e|-------------------------------------------------------------------------------|
B|-------------------------------------------------------------------------------|
G|-------------------------------------------------------------------------------|
D|-------------------------------------------------------------------------------|
A|-----7---------------------------------------------7---------------------------|
E|------------5----5----4----2--------2---4----5---------5----5----4----2--------|
            

comments powered by Disqus
↑ Back to top | Savage Garden Tabs for Two Beds And A Coffee Machine. Lyrics for acoustic guitar and electric guitar. Tablatures and chords are parodies/interpretations of the original songs. You may use it for private study, scholarship, research or language learning purposes only