» » »

Crash And Burn Bass tabs (ver.1)

Artists:  A B C D E F G H I J K L M N O P Q R S T U V W X Y Z # 

Crash And Burn Bass tabs (ver.1)

Savage Garden
Rating:
3/5 (1 vote)

Hard to play? Try these video lessons and learn fast.
                ----------------------------------------------------------------------------
----------------------------------------------------------------------------


Tuning: Standard

Intro/Verse 1/Pre-Chorus (NO BASS)

Chorus (1:11) 4x
G|-------------------|
D|-2~2~2222----------|
A|----------2~2~0~0~-|
E|-------------------|

(1:30 - 1:38) NO BASS

Verse 2 (1:39) 2x
G|-------------------------------------------------------------------------|
D|-2222222222222222--------------------------------------------------------|
A|------------------2222222222222222-4444444444444444-0000000000000000-----|
E|-------------------------------------------------------------------------|

Pre-Chorus (1:58) 1x (My way to play this part; it sounds cooler) 12's/14's
G|-------------------------------------------------------------------------|
D|-2222222222222222-4444444444444444-7777777777777777-12-12-12--14-14-14---|
A|-------------------------------------------------------------------------|
E|-------------------------------------------------------------------------|

Chorus (2:07) 4x
G|-------------------|
D|-2~2~2222----------|
A|----------2~2~0~0~-|
E|-------------------|

Bridge (2:26) 1x
G|----------------------------------------|
D|----------------------------------------|
A|-44444444-0000-2222-44444444-0000-2-2-2-|
E|----------------------------------------|

(2:36) 2x
G|---------------------------------------------------------------------|
D|-2222222222222222----------------------------------------------------|
A|------------------2222222222222222-4444444444444444-0000000000000000-|
E|---------------------------------------------------------------------|

(2:54) 2x
G|----------------------|
D|-2~-------------------|
A|-------2~----4~----0~-|
E|----------------------|

(3:15) Repeat until song ends
G|-------------------|
D|-2~2~2222----------|
A|----------2~2~0~0~-|
E|-------------------|

There ya go! Simple as that! comments? corrections? greatly welcomed :D

============================================================================
| /  slide up
| \  slide down
| h  hammer-on
| p  pull-off
| ~  ring out
| +  harmonic
| x  Mute note
============================================================================
            
Hard to play? Try these video lessons and learn fast. | Correct




comments powered by Disqus
↑ Back to top | Tablatures and chords are parodies/interpretations of the original songs. You may use it for private study, scholarship, research or language learning purposes only