» » »

Savage Garden, Crash And Burn Tabs (ver.2)

Artists:  A B C D E F G H I J K L M N O P Q R S T U V W X Y Z # 

Crash And Burn Tabs (ver.2)

Savage Garden Tabs
 Rating:
4/5 (4 votes)
Crash And Burn lessons Tabs too difficult? Try these video lessons and learn fast
                Crash and Burn
Savage Garden
Affirmation
Standard Tuning
||-------------------------------------------------------------------------------------------
||----------------------------------------------------------5-----------------------0-------
||-----9-----------9----------4---------4----------6-----------6-----------2--------2---
||---9---9------9---9-----4----4----4---4-----6----6------6---6------2----2-------2--
||-7---------7-----------2---------2----------4------------------------0------------------
||-------------------------------------------------------------------------------------------

Chorus
||-------------------------------------------------------------------------------------------
||------------------------------------0-------------------------------------------------------
||--9--9----9----------4--4--------2---------------------------------------------------------------
||--9--9----9----------4--4--------2---------------------------------------------------------------
||--7--7----7----------2--2--------0---------------------------------------------------------------
||-------------------------------------------------------------------------------------------

||---------------------------------0-------------------------------------------------------
||------------------------5-5-----0-------------------------------------------------------
||---9--9----9----------6-6-----2-------------------------------------------------------
||---9--9----9----------6-6-----2-------------------------------------------------------
||---7--7----7----------4-4-----0-------------------------------------------------------
||-----------------------------------------------------------------------------------------
Thats about it, I can't really remember if there are any more parts as I don't have the CD or my guitar here with me. I'm only tabbing from memory.
            
Submit corrections

comments powered by Disqus
↑ Back to top | Savage Garden Tabs for Crash And Burn. Lyrics for acoustic guitar and electric guitar. Tablatures and chords are parodies/interpretations of the original songs. You may use it for private study, scholarship, research or language learning purposes only