» » »

Transcendental Requiem Tabs (ver.1)

Artists:  A B C D E F G H I J K L M N O P Q R S T U V W X Y Z # 

Transcendental Requiem Tabs (ver.1)

Satyricon
Rating:
0/5 (0 votes)

Tabs too difficult? Try these video lessons and learn fast.
                #Title         : Transcendental requiem of slaves

#Composer      : Satyr

#Staff         : Guitarra Acústica 1

#Tempo         : 130

#Time Division : 4/4














|---------|-------|-----------------|-----------------|-----------------|

|---------|-------|-----------------|-----------------|-----------------|

|---------|-------|-----------------|-----------------|-----------------|

|---------|-------|-----------------|-----------------|-------------1-1-|

|---------|-------|-2-5-5-2-5-5-2-5-|-5-1-4-4-2-5-5-2-|-5-5-2-5-5-3-----|

|---------|-------|-----------------|-----------------|-----------------|



|-----------------|-----------------|-----------------|-------------|

|-----------------|-----------------|-----------------|-----1-----1-|

|-----------------|-----------------|-----------------|-------------|

|-----------------|-----------------|-------------1-1-|---2-----2---|

|-2-5-5-2-5-5-2-5-|-5-1-4-4-2-5-5-2-|-5-5-2-5-5-3-----|-0-----0-----|

|-----------------|-----------------|-----------------|-------------|



|-------------|-------------|-------------|-------------|-------------|

|-----1-----1-|-----1-----1-|-----1-----1-|-----0-------|-----1-----1-|

|-------------|-------------|-------------|-----------4-|-2-----------|

|---2-----2---|---2-----2---|---2-----2---|---2-----2---|---2-----2---|

|-0-----0-----|-3-----3-----|-3-----3-----|-2-----2-----|-0-----0-----|

|-------------|-------------|-------------|-------------|-------------|



|-------------|-------------|-------------|-------------|-------------|

|-----1-----1-|-----1-----1-|-----1-----1-|-----0-----0-|-----1-----1-|

|-------------|-------------|-------------|-------------|-------------|

|---2-----2---|---2-----2---|---2-----2---|---2-----2---|---2-----2---|

|-0-----0-----|-3-----3-----|-3-----3-----|-2-----2-----|-0-----0-----|

|-------------|-------------|-------------|-------------|-------------|



|-------------|-------------|-------------|-------------|-------------|

|-----1-----1-|-----1-----1-|-----1-----1-|-----0-----0-|-------------|

|-------------|-------------|-------------|-------------|-------------|

|---2-----2---|---2-----2---|---2-----2---|---2-----2---|-------------|

|-0-----0-----|-3-----3-----|-3-----3-----|-2-----2-----|-2-5-5-2-5-5-|

|-------------|-------------|-------------|-------------|-------------|



|-------------|-------------|-------------|-------------|-------------|

|-------------|-------------|-------------|-------------|-------------|

|-------------|-------------|-------------|-------------|-------------|

|-------------|-------------|---------1-1-|-------------|-------------|

|-2-5-5-1-4-4-|-2-5-5-2-5-5-|-2-5-5-3-----|-2-5-5-2-5-5-|-2-5-5-1-4-4-|

|-------------|-------------|-------------|-------------|-------------|



|-------------|-------------|-------------|-------------|-------------|

|-------------|-------------|-------------|-------------|-------------|

|-------------|-------------|-------------|-------------|-------------|

|-------------|---------1-1-|-------------|-------------|-------------|

|-2-5-5-2-5-5-|-2-5-5-3-----|-2-5-5-2-5-5-|-2-5-5-1-4-4-|-2-5-5-2-5-5-|

|-------------|-------------|-------------|-------------|-------------|



|-------------|-------------|-------------|-------------|-------------|

|-------------|-------------|-------------|-------------|-------------|

|-------------|-------------|-------------|-------------|-------------|

|---------1-1-|-------------|-------------|-------------|---------1-1-|

|-2-5-5-3-----|-2-5-5-2-5-5-|-2-5-5-1-4-4-|-2-5-5-2-5-5-|-2-5-5-3-----|

|-------------|-------------|-------------|-------------|-------------|



|-------------|-------------|-------------|-------------|-------------|

|-------------|-------------|-------------|-------------|-------------|

|-------------|-------------|-------------|-------------|-------------|

|-------------|-------------|-------------|---------1-1-|-------------|

|-2-5-5-2-5-5-|-2-5-5-1-4-4-|-2-5-5-2-5-5-|-2-5-5-3-----|-2-5-5-2-5-5-|

|-------------|-------------|-------------|-------------|-------------|



|-------------|-------------|-------------|

|-------------|-------------|-------------|

|-------------|-------------|-------------|

|-------------|-------------|---------1-1-|

|-2-5-5-1-4-4-|-2-5-5-2-5-5-|-2-5-5-3-----|

|-------------|-------------|-------------|



#End of file.
            
Tabs too difficult? Try these video lessons and learn fast.


comments powered by Disqus
↑ Back to top | Tablatures and chords are parodies/interpretations of the original songs. You may use it for private study, scholarship, research or language learning purposes only