» » »

Mother North Tabs (ver.1)

Artists:  A B C D E F G H I J K L M N O P Q R S T U V W X Y Z # 

Mother North Tabs (ver.1)

Satyricon
Rating:
4/5 (4 votes)

Hard to play? Try these video lessons and learn fast.
                
Standard E tuning.

I know Satyricon plays this tuned half-step down live, but on the album it's in standard 
So if you wanna play along to live versions, tune down half-step.

Riff 1

e|--------------------------------------------|-------------------------------------------|
B|--------------------------------------------|-------------------------------------------|
G|--------------------------------------------|-------------------------------------------|
D|--------------------------------------------|-------10-10-10-9-9-9-7-7-7-9-9-9----------|
A|--------10-10-10-9-9-9-7-7-7-10-10-10-9-9-9-|----------------------------------10-10-10-|
E|-0-0-0--------------------------------------|-7-7-7-------------------------------------|

e|---------------------------------------------|----------------------------------------|
B|---------------------------------------------|----------------------------------------|
G|-10-10-10-9-9-9----------9-9-9---------------|----------------------------------------|
D|----------------10-10-10------10-12-10-9-9-9-|-10-10-10-7-7-7-7-7-7-7-9-7-6-6-6-7-7-7-|
A|---------------------------------------------|----------------------------------------|
E|---------------------------------------------|----------------------------------------|


Riff 2
  A                  D                   A                   G  (strum power chords once)
e|-------------------------------------|-------------------------------------------------|
B|-------------------------------------|-------------------------------------------------|
G|-------------------------------------|-------------------------------------------------|
D|-------7-7-7-------------7-7-7-------|--------7-7-7-10-10-10----------10-10-10-9-9-9---|
A|-7-7-7-------7-7-7-8-8-8-------8-8-8-|--7-7-7----------------10-10-10------------------|
E|-------------------------------------|-------------------------------------------------|


Riff 3
  E                  A                      C                      B
e|----------------------------------------|-------------------------------------------|
B|----------------------------------------|-------------------------------------------|
G|----------------------------------------|-------------------------------------------|
D|-------------9-9-9----------7-7-7-------|-------------------------------------------|
A|-------7-7-7-------10-10-10-------9-9-9-|-10-10-10-7-7-7-10-10-10-9-9-9-6-6-6-9-9-9-|
E|-0-0-0----------------------------------|-------------------------------------------|

Riff 4

e|----------|------------|----------|---------------|----------------------------|
B|----------|------------|----------|---------------|----------------------------|
G|----------|------------|----------|---------------|----------------------------|
D|----------|------------|----------|---------------|--------( trill )-----------|
A|-2--------|-2----------|-2--------|-9-------------|----10---9-10-9-10-9-10-----|
E|-0--------|-0----------|-0--------|-7-------------|------------------------10--|

Riff 4b
   E          E            E          B           (strum power chords once)
e|----------|------------|----------|---------------|----------------------|
B|----------|------------|----------|---------------|----------------------|
G|----------|------------|----------|---------------|----------------------|
D|----------|----------7-|----------|---------------|----------------------|
A|---7-9----|---7-9-10---|---7-9----|-9-------------|----10--9-------------|
E|-0-----10-|-0----------|-0-----10-|----10-9-7--6--|-7---------10---------|

   E          E            E          B               (strum power chords once)
e|----------|------------|----------|---------------|--------------------------|
B|----------|------------|----------|---------------|--------------------------|
G|----------|------------|----------|---------------|--------------------------|
D|----------|----------7-|----------|---------------|---------( trill )--------|
A|---7-9----|---7-9-10---|---7-9----|-9-------------|----10--9-10-9-10-9-10----|
E|-0-----10-|-0----------|-0-----10-|----10-9-7--6--|-7---------------------10-|


Riff 5a

e|---------------|---------------|---------------|---------------|---------------|
B|---------------|---------------|-----x2--------|---------------|---------------|
G|------x2-------|----x2---------|---------------|-----x2--------|-----x2--------|
D|---------------|---------------|-6--6-6-6--6-6-|---------------|---------------|
A|-6--6-6-6--6-6-|-7--7-7-7--7-7-|-4--4-4-4--4-4-|-7--7-7-7--7-7-|-2--2-2-2--2-2-|
E|-4--4-4-4--4-4-|-5--5-5-5--5-5-|---------------|-5--5-5-5--5-5-|-0--0-0-0--0-0-|

Riff 6

e|------------------------------
B|-(tremolo pick everything)----
G|------------------------------|
D|-----------6------------------|
A|-6----7----4----7-----2-------|
E|-4----5---------5-----0-------|


Riff 7

e|-------------------------------------|------------------------------------|
B|-------------------------------------|------------------------------------|
G|-------4-4-4-------2-2-2-------------|------4-4-4-------2-2-2-------------|
D|-------------4-4-4-------5-5-5-4-4-4-|------------4-4-4-------5-5-5-4-5-4-|
A|-2-2-2-------------------------------|-2-2-2------------------------------|
E|-------------------------------------|------------------------------------|

e|-------------------------------------|-------------------------------------------------|
B|-------------------------------------|-------------------------------------------------|
G|-------------------------------------|-------------------------------------------------|
D|-------4-4-4-------2-2-2-------------|------4-4-4-------2-2-2-------------------2-2-2--|
A|-------------4-4-4-------5-5-5-4-4-4-|------------4-4-4-------5-5-5-4-4-4-5-5-5--------|
E|-2-2-2-------------------------------|-2-2-2-------------------------------------------|

Riff 7 Harmony (only for the first half)

e|-----------------------------------------------------------------------------------|
B|-----------------------------------------------------------------------------------|
G|-------9-9-9-------7-7-7------------------------9-9-9-------7-7-7------------------|
D|-------------9-9-9-------10-10-10-9-9-9---------------9-9-9-------10-10-10-9-10-9--|
A|-7-7-7------------------------------------7-7-7------------------------------------|
E|-----------------------------------------------------------------------------------|


Riff 8

e|---------------|-----------------|  |---------------|---------------|
B|---------------|-----------------|  |---------------|---------------|
G|------x3-------|-----------------|  |------3x-------|---------------|
D|---------------|-----------------|  |---------------|---------------|
A|-7/9-9--9--9-9-|-9\8-8/11--5--8--|  |-5/7-7--7--7-7-|-7\6-6--6\3-3--|
E|-5/7-7--7--7-7-|-7\6-6/9---3--6--|  |-3/5-5--5--5-5-|-5\4-4--4\1-1--|


e|----------|
B|----------|
G|----------|
D|----------|
A|------4---| …and back to Riffs 1, 2 & 3.
E|------2---|
            
Hard to play? Try these video lessons and learn fast. | Correct




comments powered by Disqus
↑ Back to top | Tablatures and chords are parodies/interpretations of the original songs. You may use it for private study, scholarship, research or language learning purposes only