» » »

Satyricon, In The Mist By The Hills Tabs (ver.2)

Artists:  A B C D E F G H I J K L M N O P Q R S T U V W X Y Z # 

In The Mist By The Hills Tabs (ver.2)

Satyricon Tabs
Rating:
0/5 (0 votes)
In The Mist By The Hills lessons Tabs too difficult? Try these video lessons and learn fast
                "In the Mist by the Hills" by "Satyricon" 




Lyrics:

In the mist of the shadows by the river of the fogpalace
Two great spears and a flag of dominion and hate
Over the chasm riders of doom

And sometimes the water dares to reflect... As days pass by and the light
Is becoming weaker I can watch the death of the sun from my
Enormous view
Still sometimes I thought my own eyes were deceiving me

Many a misty morning's battle. Further on more experience
Soon it's time to hear the sound of the horn in far distance
The deathtone call for war

In the mist by the hills the day darkens
In this forest death rules
Over the chasm riders of doom and face him with a deadly pale
Spectre face
Grim as stone, ride to the deathfields... Blackness and doom
A total eclipse of the sun
Die by the northern trilogy in the mist by the hills.


Riff 1

E  +--------------------------------------------------------+
B  |--------------------------------------------------------|
G  |----4---------------------------------------------------|
D  |--4---4-2-5-4-5-4---------------------------------------|
A  |2-------------------------------------------------------|
E  +--------------------------------------------------------+


Riff 2

E  +--------------------------------------------------------+
B  |--------------------------------------------------------|
G  |----6-6-7-4/7-6-6-----6-6-7-4/7-------------------------|
D  |4-4-4-4-5-2/5-4-4-4-4-4-4-5-2/5-3-3---------------------|
A  |2-2---------------2-2-----------1-1---------------------|
E  +--------------------------------------------------------+


Riff 3

E  +--------------------------------------------------------+
B  |--------------------------------------------------------|
G  |--------------------------------------------------------|
D  |----------------4-4-4-4---------------------------------|
A  |--------4-4-4-4---------4-4-4-4-------------------------|
E  +2-2-2-2-------------------------------------------------+


E  +--------------------------------------------------------+
B  |--------------------------------------------------------|
G  |--------------------------------------------------------|
D  |----------------4-4-4-4---------------------------------|
A  |--------4-4-4-4---------4-4-4-4-------------------------|
E  +2-2-2-2-------------------------------------------------+


E  +--------------------------------------------------------+
B  |--------------------------------------------------------|
G  |--------------------------------------------------------|
D  |----------------5-5-5-5---------------------------------|
A  |--------5-5-5-5---------5-5-5-5-------------------------|
E  +3-3-3-3-------------------------------------------------+


E  +--------------------------------------------------------+
B  |--------------------------------------------------------|
G  |--------------------------------------------------------|
D  |----------------5-5-5-5---------------------------------|
A  |--------5-5-5-5---------5-5-5-5-------------------------|
E  +3-3-3-3-------------------------------------------------+


E  +--------------------------------------------------------+
B  |--------------------------------------------------------|
G  |----------------4-4-4-4---------------------------------|
D  |--------4-4-4-4---------4-4-4-4-------------------------|
A  |2-2-2-2-------------------------------------------------|
E  +--------------------------------------------------------+


E  +--------------------------------------------------------+
B  |--------------------------------------------------------|
G  |--------------------------------------------------------|
D  |2-2-2-2-4-4-5-5-4-4-4-4-4-4-4-4-------------------------|
A  |--------------------------------------------------------|
E  +--------------------------------------------------------+


E  +--------------------------------------------------------+
B  |--------------------------------------------------------|
G  |----------------4-4-4-4---------------------------------|
D  |--------4-4-4-4---------4-4-4-4-------------------------|
A  |2-2-2-2-------------------------------------------------|
E  +--------------------------------------------------------+


E  +--------------------------------------------------------+
B  |--------------------------------------------------------|
G  |--------------------------------------------------------|
D  |2-2-2-2-4-4-4-4-5-5-5-5-5-5-5-5-------------------------|
A  |--------------------------------------------------------|
E  +--------------------------------------------------------+



Riff 4


E  +--------------------------------------------------------+
B  |--------------------------------------------------------|
G  |--------------------------------------------------------|
D  |9-9-9-9-9-9-9-9-9-9-9-9-8-8-8-8-------------------------|
A  |7-7-7-7-7-7-7-7-7-7-7-7-6-6-6-6-------------------------|
E  +--------------------------------------------------------+


E  +--------------------------------------------------------+
B  |--------------------------------------------------------|
G  |--------------------------------------------------------|
D  |9-9-9-9-9-9-9-9-9-9-9-9-8-8-8-8-------------------------|
A  |7-7-7-7-7-7-7-7-7-7-7-7-6-6-6-6-------------------------|
E  +--------------------------------------------------------+


E  +--------------------------------------------------------+
B  |--------------------------------------------------------|
G  |--------------------------------------------------------|
D  |9-9-9-9-9-9-9-9-9-9-9-9-8-8-8-8-------------------------|
A  |7-7-7-7-7-7-7-7-7-7-7-7-6-6-6-6-------------------------|
E  +--------------------------------------------------------+


E  +--------------------------------------------------------+
B  |--------------------------------------------------------|
G  |7-7-7-7-7-7-7-7-6-6-6-6-6-6-6-6-------------------------|
D  |5-5-5-5-5-5-5-5-4-4-4-4-4-4-4-4-------------------------|
A  |--------------------------------------------------------|
E  +--------------------------------------------------------+


E  +--------------------------------------------------------+
B  |--------------------------------------------------------|
G  |7-7-7-7-7-7-7-7-11-11-11-11-11-11-11-11-----------------|
D  |5-5-5-5-5-5-5-5-9--9--9--9--9--9--9--9------------------|
A  |--------------------------------------------------------|
E  +--------------------------------------------------------+


Riff 5



E  +--------------------------------------------------------+
B  |--------------------------------------------------------|
G  |----9-----9-----9---------------------------------------|
D  |--9-----9-----9---8-8-8---------------------------------|
A  |7-----7-----7-----6-6-6---------------------------------|
E  +--------------------------------------------------------+



Riff 6


E  +--------------------------------------------------------+
B  |--------------------------------------------------------|
G  |--------------------------------------------------------|
D  |--------------------------------------------------------|
A  |7-7-7-7-7-7-7-7-7-7-7-7-7-7-7-7-------------------------|
E  +0-0-0-0-0-0-0-0-0-0-0-0-0-0-0-0-------------------------+


E  +--------------------------------------------------------+
B  |--------------------------------------------------------|
G  |--------------------------------------------------------|
D  |12-12-12-12-12-12-12-12-11-11-11-11-12-12-12-12---------|
A  |10-10-10-10-10-10-10-10-9--9--9--9--10-10-10-10---------|
E  +--------------------------------------------------------+


E  +--------------------------------------------------------+
B  |--------------------------------------------------------|
G  |--------------------------------------------------------|
D  |--------------------------------------------------------|
A  |7-7-7-7-7-7-7-7-7-7-7-7-7-7-7-7-------------------------|
E  +0-0-0-0-0-0-0-0-0-0-0-0-0-0-0-0-------------------------+


E  +--------------------------------------------------------+
B  |--------------------------------------------------------|
G  |--------------------------------------------------------|
D  |12-12-12-12-12-12-12-12-11-11-11-11-12-12-12-12---------|
A  |10-10-10-10-10-10-10-10-9--9--9--9--10-10-10-10---------|
E  +--------------------------------------------------------+


E  +--------------------------------------------------------+
B  |--------------------------------------------------------|
G  |--------------------------------------------------------|
D  |10-10-10-10-10-10-10-10-9-9-9-9-10-10-10-10-------------|
A  |8--8--8--8--8--8--8--8--7-7-7-7-8--8--8--8--------------|
E  +--------------------------------------------------------+





E  +--------------------------------------------------------+
B  |--------------------------------------------------------|
G  |--------------------------------------------------------|
D  |12-12-12-12-12-12-12-12-11-11-11-11-12-12-12-12---------|
A  |10-10-10-10-10-10-10-10-9--9--9--9--10-10-10-10---------|
E  +--------------------------------------------------------+


E  +--------------------------------------------------------+
B  |--------------------------------------------------------|
G  |--------------------------------------------------------|
D  |5-5-5-5-5-5-5-5-7-7-7-7-7-7-7-7-------------------------|
A  |3-3-3-3-3-3-3-3-5-5-5-5-5-5-5-5-------------------------|
E  +--------------------------------------------------------+


E  +--------------------------------------------------------+
B  |--------------------------------------------------------|
G  |--------------------------------------------------------|
D  |10-10-10-10-10-10-10-10-9-9-9-9-10-10-10-10-------------|
A  |8--8--8--8--8--8--8--8--7-7-7-7-8--8--8--8--------------|
E  +--------------------------------------------------------+


Riff 7



E  +--------------------------------------------------------+
B  |--------------------------------------------------------|
G  |--------------------------------------------------------|
D  |--------------------------------------------------------|
A  |7-7-7-7-7-7-7-7-7-7-7-7-7-7-7-7-------------------------|
E  +0-0-0-0-0-0-0-0-0-0-0-0-0-0-0-0-------------------------+


E  +--------------------------------------------------------+
B  |--------------------------------------------------------|
G  |--------------------------------------------------------|
D  |12-12-12-12-12-12-12-12-11-11-11-11-7-7-9-9-------------|
A  |10-10-10-10-10-10-10-10-9--9--9--9--5-5-7-7-------------|
E  +--------------------------------------------------------+


E  +--------------------------------------------------------+
B  |--------------------------------------------------------|
G  |--------------------------------------------------------|
D  |--------------------------------------------------------|
A  |7-7-7-7-7-7-7-7-7-7-7-7-7-7-7-7-------------------------|
E  +0-0-0-0-0-0-0-0-0-0-0-0-0-0-0-0-------------------------+


E  +--------------------------------------------------------+
B  |--------------------------------------------------------|
G  |--------------------------------------------------------|
D  |12-12-12-12-12-12-12-12-11-11-11-11-7-7-9-9-------------|
A  |10-10-10-10-10-10-10-10-9--9--9--9--5-5-7-7-------------|
E  +--------------------------------------------------------+


E  +--------------------------------------------------------+
B  |--------------------------------------------------------|
G  |--------------------------------------------------------|
D  |5-5-5-5-5-5-5-5-5-5-5-5-5-5-5-5-------------------------|
A  |3-3-3-3-3-3-3-3-3-3-3-3-3-3-3-3-------------------------|
E  +--------------------------------------------------------+


E  +--------------------------------------------------------+
B  |--------------------------------------------------------|
G  |--------------------------------------------------------|
D  |4-4-4-4-4-4-4-4-5-5-5-5-4-4-5-5-------------------------|
A  |2-2-2-2-2-2-2-2-3-3-3-3-2-2-3-3-------------------------|
E  +--------------------------------------------------------+


Riff 8




E  +--------------------------------------------------------+
B  |--------------------------------------------------------|
G  |--------------------------------------------------------|
D  |--------0-0-0-0-7-7-7-7-7-7-7-7-------------------------|
A  |0-0-0-0-------------------------------------------------|
E  +--------------------------------------------------------+


E  +--------------------------------------------------------+
B  |--------------------------------------------------------|
G  |10-10-10-10-10-10-10-10-9-9-9-9-5-5-7-7-----------------|
D  |--------------------------------------------------------|
A  |--------------------------------------------------------|
E  +--------------------------------------------------------+


E  +--------------------------------------------------------+
B  |--------------------------------------------------------|
G  |--------------------------------------------------------|
D  |--------0-0-0-0-7-7-7-7-7-7-7-7-------------------------|
A  |0-0-0-0-------------------------------------------------|
E  +--------------------------------------------------------+



E  +--------------------------------------------------------+
B  |--------------------------------------------------------|
G  |--------------------------------------------------------|
D  |8-8-8-8-8-8-8-8-3-3-3-3-2-2-3-3-------------------------|
A  |--------------------------------------------------------|
E  +--------------------------------------------------------+


Riff 9



E  +--------------------------------------------------------+
B  |--------------------------------------------------------|
G  |--------------------------------------------------------|
D  |--------4-4-4-4-5-5-5-5-2-2-2-2-4-4-4-4-5-5-2-2---------|
A  |2-2-2-2-------------------------------------------------|
E  +--------------------------------------------------------+


E  +--------------------------------------------------------+
B  |--------------------------------------------------------|
G  |--------------------------------------------------------|
D  |4-4-4-4-------------------------------------------------|
A  |--------3-3-3-3-----------------------------------------|
E  +--------------------------------------------------------+




Find more tabs at
            
Submit corrections

comments powered by Disqus
↑ Back to top | Satyricon Tabs for In The Mist By The Hills. Lyrics for acoustic guitar and electric guitar. Tablatures and chords are parodies/interpretations of the original songs. You may use it for private study, scholarship, research or language learning purposes only