» » »

Lights Of Heaven Bass tabs (ver.1)

Artists:  A B C D E F G H I J K L M N O P Q R S T U V W X Y Z # 

Lights Of Heaven Bass tabs (ver.1)

Satriani Joe
Rating:
0/5 (0 votes)
Tabs too difficult? Try these video lessons and learn fast.
                LIGHTS OF HEAVEN
By Joe Satrini




I play it on 4-String Bass Guitar with standard tune.
Here, it is exactly like what you hear.

				            Lights Of Heaven
						   BY
					       JOE SATIANI

G ||---------|----------|----------|-----------------|---------|---------|------------|----------|-
D ||---------|----------|----------|-----------------|---------|---------|------------|----------|-
A ||---------|----------|----------|------9^10^9\7---|---------|---------|------------|----------|-
E ||----0----|--0-3-5---|--5-7-8---|--10-------------|----8----|---8--7--|---8\0---0--|---(0)----|-


   Guitar Enter

G ||--9/16---|--19\12---|--11^12^11-------------------|-
D ||---------|----------|-----------12-10-9-7---------|-
A ||---------|----------|---------------------10-9-7--|-
E ||---------|----------|-----------------------------|-


  Riff (1), Main Riff
                                Play 5 times
G ||-----------------------------------------------|-
D ||-----------------------------------------------|-
A ||-----------------------------------------7-----|-
E ||--000000--0^3^0^5^0---888-8^7-777---7-10-------|-

G ||-----------------------------------------------|-
D ||-----------------------------------------------|-
A ||-----------------------------------------------|-
E ||--000000--0^3^0^5^0---888-8^7-777---7777-------|-



  Riff (2)

G ||----------------------------------------------------------------|-
D ||----------------------------------------------------------------|-
A ||-------------------------------------------------------------7--|-
E ||--5555-5555----0000-0000----5555-5555----0-0^2--2^3--3^5---7----|-



G ||--------------------------------------------------------------------------|-
D ||---------------------------------------------------------------------7/9--|-
A ||----------------------------------------------7------------------7--------|-
E ||--5555-5555----0000-0000----8888-8888--8-8-10---10---10-10-10-10----------|-



   Bass Solo (1)


G ||--------------------------------16--16\11---------|-
D ||--------------17-16--16/19--17--------------------|-
A ||-----16-17-19-------------------------------------|-
E ||--19----------------------------------------------|-



G ||-----------------------------------------------------------------------------|-
D ||--12^11^9^12---12--9\7----7--7/9-----------7-9^7-------------------------2---|-
A ||-------------9----------9--------10---9-10-------10-9--------------2-3-5-----|-
E ||------------------------------------------------------7-3----2-3-5-----------|-


   Play Riff (1) 2 times
   then,



G ||----------------------------------------------------------------|-
D ||----------------------------------------------------------------|-
A ||-------------------------------------------------------------7--|-
E ||--5555-5555----0000-0000----5555-5555----0-0^2--2^3--3^5---7----|-


G ||---------------------------------------------------------------------------------|-
D ||---------------------------------------------------------------------------------|-
A ||----------------------------------------------7------------------9^10^9^7--------|-
E ||--5555-5555----0000-0000----8888-8888--8-8-10---10---10-10-10-10----------8------|-


    Play 2 times
G ||-------------------------------------------------------|-
D ||-------------------------------------------------------|-
A ||--------------------7------------------9^10^9^7--------|-
E ||--8888-8888--8-8-10---10---10-10-10-10----------8------|-

    then,
G ||----------------------------------|-
D ||----------------------------------|-
A ||----------------------------------|-
E ||--8888-8888-----10-10-10-10-10----|-



   Bass Solo (2)

G ||--------------------------------------------------------|-
D ||----------------9-10-12--12/14--12--14/16--14--16/17----|-
A ||--------9-10-12-----------------------------------------|-
E ||--10-12-------------------------------------------------|-


G ||--14^12^11-12-14-12--14/16--14--16/17--16-17---------|-
D ||---------------------------------------------15------|-
A ||-----------------------------------------------------|-
E ||-----------------------------------------------------|-


G ||--17-16---12-------12-11---------12-11-9-----------------------------|-
D ||------------14------------12-9----------12-10-9------9-9-------------|-
A ||-----------------------------------------------12-10-----10--10\8----|-
E ||---------------------------------------------------------------------|-


   Riff (3)

G ||----------------------|-
D ||----------------------|-
A ||--7--5--3-------------|-
E ||-----------5--3--1----|-


                           Play 3 times
G ||----------------------------------|-
D ||----------------------------------|-
A ||--777--555--5^3-------------------|-
E ||-----------------555--333--3^1----|-




G ||----------------------|-
D ||----------------------|-
A ||----------------------|-
E ||--0---0------(0)------|-

              With Guitars
G ||----------------------|-
D ||----------------------|-
A ||----------------------|-
E ||--12\0-------(0)------|-


Enjoy it..!!!
            
Tabs too difficult? Try these video lessons and learn fast.


comments powered by Disqus
↑ Back to top | Tablatures and chords are parodies/interpretations of the original songs. You may use it for private study, scholarship, research or language learning purposes only