>
 >
Killer Bee Bop 1

Killer Bee Bop 1 Bass Tabs

Satriani Joe - Killer Bee Bop 1 chords, tabs, tablatures, lyrics

Guitar lessons | Add/correct | Request | Top 50 tabs Artists:  A B C D E F G H I J K L M N O P Q R S T U V W X Y Z 0-9

Killer Bee Bop 1 Bass Tabs – Satriani Joe

CD, Sheet music, Poster

Do you like Killer Bee Bop 1? Share with your friends now
Bass TabsBass Tabs v2
Joe Satriani - Killer Bee Bop
The Music Shop BBS (619)423-4970

Please listen to the recording for the exact phrasing
of the song.  This is in no way 100% accurate or complete.
Remember, these tabs are free, if you want an accurate
and complete tab, go to your local music store and shell out
$25.00 for a book...Don't complain to the person posting the
tabs...If we were that good, we'd be working for the guitar
magazines...


2x=========================================
--------------7------9-----7--------------------
------------7---9-------7-----9-----7-----5-----
-7----5---7----------------------7-----5--------
---5----7---------------------------------------


---------------------------------------------6--
------------------------------------7--8--9-----
-7--7-----7-----7--5--6--7---9--10--------------
-------5-----7----------------------------------


-7--8--9--9-----7-------------------------------
-------------7-----9--7-------------------------
-------------------------10--9--8--7--0--5------
--------------------------------------------7---


------------------------------------------------
------------------------------------------------
--4--5--5--6--7--------------------------4--5--6
-----------------0--0--2--3--5--7--5--7---------


---------------------------7-----9-----7--------
---------------7--7-----7-----9-----7-----9--7--
--7--9--10--9--------7--------------------------
------------------------------------------------


------------------------------------------------
------------7--8--9-----------------------------
--10--9--------------7--6--5--4--5--6--7--9--10-
------------------------------------------------


--------------------------6--7--6--7--8--9--8--9
--------------7--9--8--9------------------------
-9--7--9--10------------------------------------
------------------------------------------------


-11-12-11-12--14--16--15--16--16----------------
----------------------------------14--14--12--11
------------------------------------------------
------------------------------------------------


------------------------------------------------
-9--------------------7--8--9--9----------------
----12--11--9--9--10--------------7--7--5--4----
----------------------------------------------7-


------------------------------------------------
------------------------------------------------
-4--5--5--6--7-----5----------------------------
----------------5-----7--7--6--5--3--0--2--3--5-


------------------------------------------------
----------------------------------------------7-
---------------4--5--6--7--6--5--6--7--9--10----
-7--5--6--7--7----------------------------------


------------------------------------------------
-9--8--7--6-------------------------------------
-----------------2--3--2--2--------7------------
-----------------------------3--0-----3--5--6--7


------------------------------------------------
------------------------------------------------
-------------------------------------------4--5-
--0--7--0--7--3/6--7--0--7--0--3--5--6--7-------


------------------------------------8--7--8--9--
---------------------7--8--9-----9--------------
-6--7--9--10--9--10-----------7-----------------
------------------------------------------------


-11--12--11-12--14--16--15--14--15--16----------
----------------------------------------14------
--------------------------------------------17--
------------------------------------------------


------------------------------------------------
------------------------------------------------
--16--14--13--12--11--11--9--9--7--6--5---------
-----------------------------------------8--7---


------------------------------------------------
------------------------------------------------
----------------------------4--5--6--7--6--5--6-
-0--2--3--5--7--6--5--6--7----------------------


------------------------------------------------
------------------------------------------------
-7--9--10--11--12--11--12--13--14--13--14--15---
------------------------------------------------

------------------------------------------------
-------------12h13--14--13--12--11----11--12--13
-16--15--16------------------------14-----------
------------------------------------------------


------------------------------------------------
-14--13--12--13--14--15--16--15--16--15--16--17-
------------------------------------------------
------------------------------------------------


------------------------------------------------
-16--17-----------------------------------------
-----------17--16\12--11--10\-------------------
-------------------------------5--6--7----------


------------------------------------------------
------------------------------------------------
------------------------------------------------
-7--6--7--6--7--0--5--7----5---5------5--5-5-5--


------------------------------------------------
------------------------------------------------
/14\---------------------4--5--6--7--6--5--6--7-
----------0--0--5--6--7-------------------------


------------------------------------------------
------------------------------------------------
--------------------------4--6--7---------------
-0--5--7--0--0--5--6--7------------0--3b(4)--0--


------------------------------------------------
------------------------------------------------
--------------------------------4--5--6--7------
-0--0--5--6--7--0--5--6--7--7---------------0-3-


------------------------------------------------
------------------------------------------------
-----------7-----------------4--5--6--7--9--10--
-0-7---6-7---0--4--5--6--7----------------------


------------------------------------------------
--------7--8--8--9-----------------9-----------9
-9--10--------------7--7--6--5--7-----------7---
--------------------------------------7--7------


------------------------------------------------
-----------------------9-9-----9-9----9-----9---
--------7-----------7-------7------7-----7-----7
-7-7-7----7-7-7--7------------------------------


------------------------------------------------
-9------9----9------------------------------9---
----7-7----7---7--6--5-5--4-----4--5--6--7------
-----------------------------7------------------


------------------------------------------------
-----9-----9-----9---------------------------3--
-7-7----7-----7---------------------------------
--------------------7-7-7-7-7-7-7-7--1---1-1-1--

           2x==
------------------------21\--x\-----------------
-3\---------2----------------x\-----------------
-----------------------------------10\----------
------------0-----------------------------------

Guitar solo

------------------------------------------------
------------------------------------------------
------------------------------------------------
-2-2-2-2-2-2-2-2--2-x-x-2-2-2-0-2-0--2--2-2--2--


------------------------------------------------
------------------------------------------------
------------------7/9--9--7h9--9----------------
-0--2--0---2-2-2------------------2--2--2--2--0-


------------------------------------------------
----------------------------------------4--4--2-
------------------------------------------------
-2--0---2--2--2--0--2--0---2--2--2-2-2----------


------------------------------------------------
-4---2--4--4--4-4-0---7-------------------------
------------------------0-0-0--0-0-----0--------
------------------------------------3-----3-----

2x===============
------------------------------------------------
-----------------------/7--7-7-7--7--7--7--7-7-7\
-0--0--0-0---0----------------------------------
----------3-----3-------------------------------


------------------------------------------------
------------------------------------5--7-----7--
-0--0--0------0-----0--0--0--0-5-7--------0-----
-----------3-----3------------------------------


------------------------------------------------
------------------------------------------------
-0--0----0--0---0--0---0--0---3--3-3-3--3--3-3-3
------------------------------------------------


------------------------------------------------
------------------------------------------------
-3---3-3--3-3---3--3--0----3--3-3-3--1--3--1----
------------------------------------------------


------------------------------------------------
------------------8-10---10-----10--------------
-3---3-3-3---/10--------------------------------
-----------------------------8------8--8--8-----


------------------------------------------------
------------10-10-11--12---13--12--13--15--15/20
------------------------------------------------
-8--8--8--8--8--8--9--10---11--10--11--13--13/18


------------------------------------------------
------------------------------------------------
--6--6-6-6--6---6-6-6---6--6-6-6--6--4--6--4----
------------------------------------------------


------------------------------------------------
------------------------------------------------
-6--6-6-6--6--6-6/16h18-18-18-16hg18-18-18-16h18
------------------------------------------------


------------------------------------------------
--------------------------------------10p8/11~--
-18-18-18\-----6-6-6-6-6--4--6--4---6-----------
------------------------------------------------


------------------------------------------------
-13/14~-----------------------------------------
----------6--6-6-6-6--6-6-6--6--6-6-6--6--6\----
------------------------------------------------

3x===============
------------------------------------------------
------------------------------------------------
--------------------------------9/14--14--14-14-14\
-7--7-7-7---5-7-5-------7--7-7------------------


------------------------------------------------
----------------------9--9---9-9-9--------------
------------------------------------------------
-7--7--7--7-5-5-7---7---------------7--7--------


------------------------------------------------
------------------------------------------------
------------------------------------------------
-7--7--7--7--7--7----7\1------------------------

4x======================
------------------------------------------------
------------------------------------------------
------------------------------------------------
-0-0-0----0-0-0----0-0-0------------------------


------------------------------------------------
------------------------------------------------
-----------------------------6------------------
--6------------3--------------------------------


------------------------------------------------
------------------------------------------------
--3-------------------------2----/19\-----------
-----------5-------\1---------------------------


------------------------------------------------
------------9--\--4-----9--8--9--9--------------
------------------------------------------------
-7\---------7--\--2-----7--6--7--7--------------

                    2x=====================
--------------------3--4--3--5\4-3--2--0--------
--9--9--9---------------------------------2-----
------------------------------------------------
--7--7--7----/7\--------------------------------


-3--4--3--5\4--3--2--0-3-4-3-5\4-3-2-0--3-4-3---
------------------------------------------------
------------------------------------------------
------------------------------------------------


5\4--3-2-0--------------------------------------
-----------2------3-4-3-5\4-3-2-0---------------
----------------------------------2-------------
------------------------------------------------


----------------------3-4-3-5\4-3-2-0-3-4-3-5\4-
-1-2-1-3-2-1-0----------------------------------
----------------3-0-----------------------------
------------------------------------------------


-3-2-0--3-4-3-5\4-3-2-0-------------------------
------------------------2--/14\-----------------
------------------------------------------------
------------------------------------------------


------------------------------------------------
---------------------------------7--------------
------------4-5-6-7---5-6-7-9-10----7-7---------
--0-3-5-6-7---------7-------------------0-3-5-6-


------------------------------------------------
------------------------------------------------
-------------0--------------------------4--5--6-
-7--7--3b(4)----0--0--0--0--3--5--6--7----------


------------------------------------------------
--------7-8-9---8--7--8-8-9---------------------
--7--7-----------------------7--5--4-----4--5--6
--------------------------------------7---------


------------------------------------------------
----------------------------9-------------------
-7-----------------------------4--5--6--7--9--10
----0--3b(4)--5--7--7--7------------------------


------------------------------------------------
-7--8--9----------------------------------------
----------7-7-7-7-----4--5--6---7-7-7-7-7-5-6-7-
-------------------7----------------------------


------------------------------------------------
------------------------------------9-----------
-7---------7-----7------------------------------
----0-0-0------0---0----7-7-7-7-7-7---7---------


------------------------------------------------
------------------------------------------------
------------------------------------------------
-1-1-1-1-1-1-1-1----7-7-7--7-7-7--1-1-1--1-1-1--


------------------------------------------------
-----------------------------3----3-------------
-2-2-2-2-2-2-2-2---------------------2-2-2-2----
--------------------1-1-1-1----1----------------


----------------------5---5---------------------
----------------------3---3---3------3-----3----
------------2--2--2---------------2-----2-------
-1-1-1-1----------------------------------------

                                 2x
------------------------------------------------
----3-----3-------------------------------------
-2-----2-------2/20\----------------------------
----------------------------------0-------------


------------------------------------------------
------------------------------------------------
------------------------------------------------
-0-0-0----0-0-0-----0-0-0-----------------------



The Music Shop BBS (619)423-4970  (San Diego, CA  USA)
Over 8,000 Guitar Tabs, pictures, construction docs, lessons, 
interviews, Over 1000 Bass Tabs, sound files, lyrics, programs.  
lyrics, pictures gig info, demo info sound files etc., 
h = hammeron                          ps = pick scrape   
p = pulloff                           % = repeat phrase
b = bend                              + natural harmonic
/\ = Slide
* = Artificial Harmonic
x = ghost note
tr = trill


The Music Shop BBS (619)423-4970  Over 10,000 guitar/bass
tab.  3.7Gigs of music files 4cdroms online, 24/7 access
download MANSI.ZIP for montly ansi/tab releases.





Comments


Popular Satriani Joe tabs & chords
Always With Me Tabs
Always With Me Always With You 1 Tabs
Crushing Day (Intro) Tabs
Devils Slide Tabs
Gnaahh Tabs
Speed Of Light 1 Tabs
Summer Song 1 Tabs
Surfing With The Alien 1 Tabs
The Mystical Potato Head Groove Thing Tabs
Top Gun Anthem Tabs


Song lyrics



↑ Back to top | Tablatures and chords are parodies/interpretations of the original songs. You may use it for private study, scholarship, research or language learning purposes only
© 2014 AZChords.com Contact us | Privacy policy | DMCA | Add/correct tabs | Request tabs | Top 50 tabs