» » »

Always With You Tabs (ver.1)

Artists:  A B C D E F G H I J K L M N O P Q R S T U V W X Y Z # 

Always With You Tabs (ver.1)

Satriani Joe
Rating:
0/5 (0 votes)

Hard to play? Try these video lessons and learn fast.
                Joe Satriani
                       ------------

               Alway with you, always with me



I think all is right. I play it by myself, and it sounds like
on the "surfin' with the alien" album.
Sorry but I don't know the solo part :)}


Main Rhythm
~~~~~~~~~~~

       Repeat 3 times
-------------------------------------------------------
------5----------5-----------4-----------2-------------
----8---8------8---8-------6---6-------4---4-----------
--9------9---9-------9---6-------6---4-------4---------
-------------------------------------------------------
-7---------7-----------0-----------2-------------------


-------------------------------------------------------
-------2-----------4-----------2-----------2-----------
-----4---4-------6---6-------4---4-------3---3---------
---4-------4---6-------6---4-------4---4-------4-------
-------------------------------------------------------
-4-----------0-----------2-----------2-----------------



Following Rhythm
~~~~~~~~~~~~~~~~

            Repeat 3 times
-------------------------------------------------------
-------------------------------------------------------
--------7-------------7------------0-----------4-------
-----11---11-------11---11-------4---4-------2---2-----
---9---------9---9---------9---2-------2---4-------4---
-7-------------7-------------0-----------2-------------


            Repeat 2 times
-------------------------------------------------------
-------------------------------------------------------
-------4-----------0-----------4-----------3-----------
-----7---7-------2---2-------2---2-------2---2---------
---5-------5---4-------4---4-------4---4-------2-------
-3-----------0-----------2-----------2-----------------


       

Have fun now ! :)}



-- 
                        MiCkEy     

          There is nothing a good day of surfin' won't cure
                            - track top -


                                              Alain MIQUEU
                                              Cyberstation
                                            23, cours Pasteur
                                             33000 Bordeaux
            
Hard to play? Try these video lessons and learn fast. | Correct




comments powered by Disqus
↑ Back to top | Tablatures and chords are parodies/interpretations of the original songs. You may use it for private study, scholarship, research or language learning purposes only