» » »

Always With Me Always With You Bass tabs (ver.2)

Artists:  A B C D E F G H I J K L M N O P Q R S T U V W X Y Z # 

Always With Me Always With You Bass tabs (ver.2)

Satriani Joe
Rating:
0/5 (0 votes)

Hard to play? Try these video lessons and learn fast.
                           live one.

           I 've divided the song into 5 parts, which are more or less the 5
           different solos.

           The timing may not be right. The best thing to do is to listen to
           the song.

           The Intro part (at the bottom) is not played on the song but it
           sounds very nice as an introduction before the guitar enters (after
           it enters you start playing normally).

           Some parts of this tab (especially the Intro part at the bottom)
           was done using the other 2 tabs that were submitted of this song:
           I listened to the song and made my own version of the tab. I
           included all the variations and put some stuff here and there that
           isn't in the other tabs (such as Part IV).


--------------------------------------------------

/     = Slide up
\     = Slide down
5h7   = Hammer on from fret 5 to fret 7
19p17 = Pull off from fret 19 to fret 17
x     = Mute string
^     = Bend
~12   = Vibrato on fret 12
S     = Slap note
P     = Pop note

--------------------------------------------------

Bass enters at 0:05.

Part I - 0:05
G||----------------|----------------|----------------|----------------|
D||*---------------|----------------|----------------|---------------*| x3
A||*---------------|----------------|----------------|---------------*|
E||--7-------------|-(7)------------|--0-------------|--2-------------|

G||----------------|----------------|----------------|----------------|
D||----------------|----------------|----------------|----------------|
A||----------------|----------------|----------------|----------------|
E||--4-------------|--0-------------|--2-------------|-(2)-----2-4-2--|

G||----------------|----------------|----------------|----------------|
D||*---------------|----------------|----------------|---------------*| x3
A||*---------------|----------------|----------------|---------------*|
E||--7-------------|-(7)------------|--0-------------|--2-------------|

G||----------------|----------------|----------------|----------------|
D||----------------|----------------|----------------|----------------|
A||----------------|----------------|----------------|----------------|
E||--4-------------|--0-------------|--2-------------|-(2)------2-4-2-|

G||----------------|----------------|----------------|----------------|
D||*---------------|----------------|----------------|---------------*| x3
A||*---------------|----------------|----------------|---------------*|
E||--7-------------|-(7)------------|--0-------------|--2-------------|

G||----------------|----------------|----------------|----------------|
D||----------------|----------------|----------------|----------------|
A||----------------|----------------|----------------|----------------|
E||--4----------2--|--0-------------|--2-------------|-(2)------------|

Part II - 1:05
G||----------------|----------------|----------------|----------------|
D||*---------------|----------------|----------------|---------------*| x3
A||*---------------|----------------|----------------|---------------*|
E||--7-------------|-(7)------------|--0-------------|--2-------------|

G||----------------|----------------|----------------|----------------|
D||----------------|----------------|----------------|----------------|
A||----------------|----------------|----------------|----------------|
E||--3-------------|--0-------------|--2-------------|-(2)------------|

G||----------------|----------------|----------------|----------------|
D||----------------|----------------|----------------|-(4)------------|
A||----------------|----------------|----------------|----------------|
E||--3-------------|--0-------------|--2-------------|----------------|

G||----------------|----------------|
D||----------------|-(4)------------|
A||----------------|----------------|
E||--2-2-----------|---------2-4-2--|

Part III - 1:32
G||----------------|----------------|----------------|----------------|
D||----------------|----------------|----------------|----------------|
A||----------------|----------------|----------------|----------------|
E||--7-------------|-(7)------------|--0-------------|--2-------------|

G||----------------|----------------|----------------|----------------|
D||----------------|----------------|----------------|----------------|
A||----------------|----------------|----------------|----------------|
E||--7-------------|-(7)------------|--0-------------|--2------2-4-2--|

G||----------------|----------------|----------------|----------------|
D||----------------|----------------|----------------|----------------|
A||----------------|----------------|----------------|----------------|
E||--7-------------|-(7)------------|--0-------------|--2-------------|

G||----------------|----------------|----------------|----------------|
D||----------------|----------------|----------------|----------------|
A||----------------|----------------|----------------|----------------|
E||--4----------2--|--0-------------|--2-------------|-(2)-----2-4-2--|

G||----------------|----------------|----------------|----------------|
D||*---------------|----------------|----------------|---------------*| x3
A||*---------------|----------------|----------------|---------------*|
E||--7-------------|-(7)------------|--0-------------|--2-------------|

G||----------------|----------------|----------------|----------------|
D||----------------|----------------|----------------|----------------|
A||----------------|----------------|----------------|----------------|
E||--4----------2--|--0-------------|--2-------------|-(2)-----2-4-2--|

Part IV - 2:12
G||----------------|----------------|----------------|----------------|
D||----------------|----------------|----------------|----------------|
A||--2----------2--|--2-------------|-------------2--|----------1--4--|
E||--------4-------|-----------4--2-|--0-------4-----|--2-------------|

G||----------------|----------------|----------------|----------------|
D||----------------|-----------1--4-|--2-------------|----------------|
A||--2----------2--|--2-------------|----------4--2--|----------1--4--|
E||--------4-------|----------------|----------------|--2-------------|

G||----------------|--------1-------|----------------|----------------|
D||----------------|--1--4-----4--1-|----------------|----------------|
A||--2-------------|----------------|-------------2--|----------1--4--|
E||----------------|----------------|--0-------4-----|--2-------------|

G||----------------|----------------|----------------|----------------|
D||----------------|----------------|----------------|-------1-2-1----|
A||----------------|----------------|----------------|-----4-------4--|
E||--4------\------|--0-------------|--2-------------|--2-------------|

Part V - 2:32
G||----------------|----------------|----------------|----------------|
D||*---------------|----------------|----------------|---------------*| x3
A||*---------------|----------------|----------------|---------------*|
E||--7-------------|-(7)------------|--0-------------|--2-------------|

G||----------------|----------------|----------------|----------------|
D||----------------|----------------|----------------|----------------|
A||----------------|----------------|----------------|----------------|
E||--4-------------|--0-------------|--2-------------|-(2)------------|

G||----------------|----------------|----------------|----------------|
D||----------------|----------------|----------------|-(2)------------|
A||----------------|----------------|----------------|----------------|
E||--7-------------|-(7)------------|--0-------------|----------------|

G||----------------|----------------|----------------|----------------|
D||----------------|----------------|----------------|----------------|
A||----------------|----------------|----------------|----------------|
E||--7-------------|-(7)------------|--7-------------|-(7)------------|
Decrescendo (Fade Out)
G||----------------|----------------|----------------|----------------|
D||*---------------|----------------|----------------|---------------*| x4
A||*---------------|----------------|----------------|---------------*|
E||--7-------------|----------------|--7-------------|----------------|

----------

Intro
This is not played but it sounds very nice, you can put it at the beginning.
Read the comments at the top for more info about this.
G||-----------------|----------------|----------------|-------------|
D||*----13-14-13----|----13-14-13----|----11-13-11----|---9-11-9---*| x3
A||*-14----------14-|-14----------14-|-11----------11-|-9--------9-*|
E||-----------------|----------------|----------------|-------------|

G||--------------|----------------|---------------|-------------|
D||----9-11-9----|----11-13-11----|-----9-11-9----|---8-11-8----|
A||--9--------9--|-11----------11-|--9----------9-|-9--------9--|
E||--------------|----------------|---------------|-------------|
            
Hard to play? Try these video lessons and learn fast. | Correct




comments powered by Disqus
↑ Back to top | Tablatures and chords are parodies/interpretations of the original songs. You may use it for private study, scholarship, research or language learning purposes only