» » »

Saron Gas, Stay And Play Tabs (ver.1)

Artists:  A B C D E F G H I J K L M N O P Q R S T U V W X Y Z # 

Stay And Play Tabs (ver.1)

Saron Gas Tabs
 Rating:
4.4/5 (7 votes)
Stay And Play lessons Tabs too difficult? Try these video lessons and learn fast
                This is a very easy song to play, but oh! Does it rock! You don't need to be a
rocket scientist to work out the timing of the song, just listen to it. Oh yeah,
and this is my first tab, so don't be hypercritical of it, if there're mistakes
please correct them. 

Props go to : whoever Brad is for working out the solo. Hey, like I said this is
my first tab, be a little forgiving!
 
 Intro (Clean)      
e|-----------------------------------------------------------------|
b|-----------------------------------------------------------------|
g|----------------------------------------------------7-7-7-7-6-6-6|
d|--0--4--0--4-------0--4--0--4-------0--4--0--4--4-4-7-7-7-7-6-6-6|x 2
a|--0--4--0--4-------0--4--0--4-------0--4--0--4--4-4-5-5-5-5-4-4-4|
E|--0--2--0--2-------0--2--0--2-------0--2--0--2--2-2--------------|

       (Distortion kicks in, Let 'er rip!!)         
e|-----------------------------------------------|
b|-----------------------------------------------|
g|---------------------------------7-7-7-7-6-6-6-|
d|-4-4/5-4--4-4/5-4--4-4/5-4--4-4--7-7-7-7-6-6-6-|x 2
a|-4-4/5-4--4-4/5-4--4-4/3-4--4-4--5-5-5-5-4-4-4-|
E|-2-2/3-2--2-2/3-2--2-2/3-2--2-2----------------|


 Verse 1 "give into me, don't let them see" (Bit less Distortion, otherwise same
as "distorted intro".
e|-----------------------------------------------|
b|-----------------------------------------------|
g|---------------------------------7-7-7-7-6-6-6-|
d|-4-4/5-4--4-4/5-4--4-4/5-4--4-4--7-7-7-7-6-6-6-|x 2
a|-4-4/5-4--4-4/5-4--4-4/3-4--4-4--5-5-5-5-4-4-4-|
E|-2-2/3-2--2-2/3-2--2-2/3-2--2-2----------------|


 Pre - Chorus "See you in the mucus stains"
e|-------------------------------|
b|-------------------------------|
g|-------------------------------|
d|-4-4-4-4-4-4-4-4--7-7-7--6-6-6-|x 4
a|-4-4-4-4-4-4-4-4--7-7-7--6-6-6-|
E|-2-2-2-2-2-2-2-2--5-5-5--4-4-4-|


 Chorus "Do you wanna play with me?"
 |------------Repeat x 4-------|-repeat x3|
e|-----------------------------|----------|-----------|
b|-----------------------------|----------|-----------|
g|--------------7-7-7-7--6-6-6-|-7-7-7-7-6|-7-7-7-7-9-|
d|-4--4-4-4-4---7-7-7-7--6-6-6-|-7-7-7-7-6|-7-7-7-7-9-| (let ring)
a|-4--4-4-4-4---5-5-5-5--4-4-4-|-5-5-5-5-4|-5-5-5-5-7-|
E|-2--2-2-2-2------------------|----------|-----------|


Bridge(Played Clean)
e|------------------------------------------------------------------------|
b|------------------------------------------------------------------------|
g|------------------------------------------------------------------------|
d|------------------------------------------------------------------------|x 2
a|------------------------------------------------------5-5-5-5-5-\-4-4-4-|
E|--2--2--2--2--2-2--2--2--2--2--2-2--2--2--2--2--2-2-2-------------------|
\

 Verse 2 "give into me, dont let them see"(Same old, same old. Gotta love power chords!)
e|-----------------------------------------------|
b|-----------------------------------------------|
g|---------------------------------7-7-7-7-6-6-6-|
d|-4-4/5-4--4-4/5-4--4-4/5-4--4-4--7-7-7-7-6-6-6-|x 2
a|-4-4/5-4--4-4/5-4--4-4/3-4--4-4--5-5-5-5-4-4-4-|
E|-2-2/3-2--2-2/3-2--2-2/3-2--2-2----------------|

Pre - Chorus "See you in the mucus stains"
e|-------------------------------|
b|-------------------------------|
g|-------------------------------|
d|-4-4-4-4-4-4-4-4--7-7-7--6-6-6-|x 4
a|-4-4-4-4-4-4-4-4--7-7-7--6-6-6-|
E|-2-2-2-2-2-2-2-2--5-5-5--4-4-4-|

Chorus "Do you wanna play with me?"
 |------------Repeat x 4-------|-repeat x3|
e|-----------------------------|----------|-----------|
b|-----------------------------|----------|-----------|
g|--------------7-7-7-7--6-6-6-|-7-7-7-7-6|-7-7-7-7-9-|
d|-4--4-4-4-4---7-7-7-7--6-6-6-|-7-7-7-7-6|-7-7-7-7-9-| (let ring)
a|-4--4-4-4-4---5-5-5-5--4-4-4-|-5-5-5-5-4|-5-5-5-5-7-|
E|-2--2-2-2-2------------------|----------|-----------|


Guitar Solo (On the album version you can hear the bridge playing behind the solo)
|-----------------------------------------------------------|
|-----------------------------------------------------------|
|-----------------------------------------------------------|X 2
|-16^~~~---16h18-18-18-18/19-19---16^~~~---16h18-18-18-18\14|
|-----------------------------------------------------------|
|-----------------------------------------------------------|

|-----------------------------------------------------------|
|-----------------------------------------------------------|
|-18^~~~---18h19-19-19-19/21-21---18^~~~---18h19-19-19-19\16|
|-----------------------------------------------------------|
|-----------------------------------------------------------|
|-----------------------------------------------------------|

"Give into me, don't let them see, give into me...DO YOU WANNA PLAY WITH ME?" -no
guitars or anything, just drums and Shaun's somewhat strained vocals.
 


Pre - Chorus "See you in the mucus stains"
e|-------------------------------|
b|-------------------------------|
g|-------------------------------|
d|-4-4-4-4-4-4-4-4--7-7-7--6-6-6-|x 4
a|-4-4-4-4-4-4-4-4--7-7-7--6-6-6-|
E|-2-2-2-2-2-2-2-2--5-5-5--4-4-4-|

Chorus "Do you wanna play with me?"
 |------------Repeat x 4-------|-repeat x3|
e|-----------------------------|----------|-----------|
b|-----------------------------|----------|-----------|
g|--------------7-7-7-7--6-6-6-|-7-7-7-7-6|-7-7-7-7-9-|
d|-4--4-4-4-4---7-7-7-7--6-6-6-|-7-7-7-7-6|-7-7-7-7-9-| (let ring)
a|-4--4-4-4-4---5-5-5-5--4-4-4-|-5-5-5-5-4|-5-5-5-5-7-|
E|-2--2-2-2-2------------------|----------|-----------|

 Ending
|--------|
|--------|
|--------|
|0-4-0-4-|
|0-4-0-4-|
|0-2-0-2-|

There you have it, it isn't too hard to play and sounds really sweet! Seether are
just the tip of the iceberg! South Africa has a rock scene like no other. My
money's on Siamese or Pyramid Tongue to be the next SA band to hop on over to the
great US of A. Mark my words, SA music is going to take over the world! See if
you can get hold of Saron Gas's cd, it's actually better than their cd
(Disclaimer) as Seether, in my very humble opinion.


Later. \m/    \m/
            
Submit corrections

comments powered by Disqus
↑ Back to top | Saron Gas Tabs for Stay And Play. Lyrics for acoustic guitar and electric guitar. Tablatures and chords are parodies/interpretations of the original songs. You may use it for private study, scholarship, research or language learning purposes only