» » »

Skin The Tiger Bass tabs (ver.1)

Artists:  A B C D E F G H I J K L M N O P Q R S T U V W X Y Z # 

Skin The Tiger Bass tabs (ver.1)

Saron Gas
Rating:
3/5 (1 vote)

Tabs too difficult? Try these video lessons and learn fast.
                Those are 10s, 12s, and 13s, not 1-0 or anything like that. The times are as close as i 
get, the parts tend to start half-way through a given second.

/ = Slide
p = Pull-off

Main Riff
0:14
G|---------------------------------------|
D|---------------------------------------|
A|---------------------------------------|
D|---0-0-10--0-0-0-0-1-3-----------------| x8


Verse
0:34
G|---------------------------------------|
D|---------------------------------------|
A|---------------------------------------|
D|-0-0------0-0-10--0-0-0-0-1-3----------| x4

Chorus
0:55
G|---------------------------------------|
D|---------------------------------------|
A|---------------------------------------|
D|-0--0-0-12/10-3------------------------| x4

Main Riff x4

Verse x4

Chorus x4

Main Riff x4

Riff Varient
1:55
G|--------------------|
D|--------------------|
A|--------------------|
D|---0-0-10-----------|  x1

Bridge
2:03
G|----------------|
D|----------------|
A|---6p5--3-------|
D|-0--------------|  x16
First 8 times are just the bass, guitar joins after Shaun says '...f**k.'

Verse Varient
2:24
G|---------------------------------------|
D|---------------------------------------|
A|---------------------------------------|
D|-0-0--0--0--0-0-10--0-0-0-0-1-3--------|

Verse x3

Chorus x8

Main Riff x4

Riff Varient x1
            
Tabs too difficult? Try these video lessons and learn fast.




comments powered by Disqus
↑ Back to top | Tablatures and chords are parodies/interpretations of the original songs. You may use it for private study, scholarship, research or language learning purposes only