>
 >
Seducer

Seducer Bass Tabs

Saraya - Seducer chords, tabs, tablatures, lyrics

Guitar lessons | Add/correct | Request | Top 50 tabs Artists:  A B C D E F G H I J K L M N O P Q R S T U V W X Y Z 0-9

Seducer Bass Tabs – Saraya

CD, Sheet music, Poster

Do you like Seducer? Share with your friends now
Bass TabsChordsTabsUkulele
-------------------------------------------------------------------------------
-------------------------------------------------------------------------------


Tuning: Standard



     Intro - m.4                                                                         
     H        Q    Q        E  E  E  E  E  E  E  E     E  E  E  E  E  E  E  E   
G||----------------------|--------7--------7-----7--|--------7--------7-----7--|
D||----------------------|-----7--------7-----7-----|-----7--------7-----7-----|
A||----------------------|--5--------5--------------|--5--------5--------------|
E||----------------1/----|--------------------------|--------------------------|


  E  E  E  E  E  E  E  E     E  E  E  E  Q      Q        Q    E  E  Q    Q     
--------7--------7--------|---------------------------|-----------------------|
-----7--------7-----------|---------------------------|-----------------------|
--5--------5--------5--5--|--5--5--5--5--5/----12\----|--5----5--7--L----8----|
--------------------------|---------------------------|-----------------------|


  E  E  E  E  E  E  E  E     Q    E  E  Q    Q       E  E  E  E   E  E  E  E   
--------------------------|-----------------------|---------------------------|
--------------------------|-----------------------|---------------------------|
--1--1--1--1--3--3--3--0--|--5----5--7--L----8----|---------------3--3--3--3--|
--------------------------|-----------------------|--3--3--3--3b--------------|


                                                      Verse 1                                    
  Q    E  E  Q    Q       E  E  E  E  E  E  E  E      W                   W                 
-----------------------|---------------------------|-------------------|-------------------|
-----------------------|---------------------------|-------------------|-------------------|
--5----5--7--L----8----|--1--1--1--0--3--0--3--3b--|--0----------------|--L----------------|
-----------------------|---------------------------|-------------------|-------------------|


  W                   W                   W                   W                   W                 
-------------------|-------------------|-------------------|-------------------|---------------|
-------------------|-------------------|-------------------|-------------------|---------------|
--L----------------|--L----------------|-------------------|-------------------|---------------|
-------------------|-------------------|-------------------|-------------------|---------------|


   m.27                                                                             
     E  E  E  E  E  E  E  E     E  E  E  E  E  E  E  E     E  E  E  E  E  E  E  E   
|--------------------------|--------------------------|--------------------------|
|--------------------------|--------------------------|--------------------------|
|--0--0--0--0--0--0--0--0--|--0--0--0--0--0--0--0--0--|--0--0--0--0--0--0--0--0--|
|--------------------------|--------------------------|--------------------------|


  E  E  E  E  E  E  E  E     E  E  E  E  E  E  E  E     E  E  E  E  E  E   E  E   
--------------------------|--------------------------|---------------------------|
--------------------------|--------------------------|------------------------7--|
--0--0--0--0--0--0--0--0--|--0--0--0--0--0--0--0--0--|--0--0--0--0--0--5s--7-----|
--------------------------|--------------------------|---------------------------|


                                                    Pre-chorus                       
  Q.     E  E  E  E  E     Q.     E  E  E  E  E     E  E  E  E  E  E  E  E   
------------------------|------------------------|--------------------------|
------------------------|------------------------|--------------------------|
------------------------|------------------------|--2--2--2--2--2--2--2--2--|
--5------3--L--3--3--3--|--2------1--L--1--3--5--|--------------------------|


  E  E  E  E  E  E  E  E     E  E  E  E  E  E  E  E     E  E  E   E  E  E  E  E   
--------------------------|--------------------------|---------------------------|
--------------------------|--------------------------|---------------------------|
--2--2--2--2--2--2--2--2--|--2--2--2--2--2--2--2-----|---------------------------|
--------------------------|-----------------------3--|--3--3--3s--5--5--5--5--5--|


  E  E  E  E  E  E  E  E     E  E  E  E  E  E  E  E     E  E  E  E  E  E  E  E   
--------------------------|--------------------------|--------------------------|
--------------------------|--------------------------|--------------------------|
--2--2--2--2--2--2--2--2--|--2--2--2--2--2--2--2--2--|--3--3--3--3--3--3--3--3--|
--------------------------|--------------------------|--------------------------|


                             Chorus 1                                                
  E  E  E  E  Q     E  E     Q    E  E  E  E  E  E     Q    E  E  E  E  E  E   
--------------------------|-------------------------|-------------------------|
--------------------------|-------------------------|-------------------------|
--3--3--3--3--3b----0--3--|--5----5--3--L--3--3--3--|--2----2--3--L--3--0--3--|
--------------------------|-------------------------|-------------------------|


  Q    E  E  E  E  E  E     Q    E  E  E  E  Q        Q    E  E  E  E  E  E   
-------------------------|-------------------------|-------------------------|
-------------------------|-------------------------|-------------------------|
--5----5--3--L--3--3--0--|--2----2--2--3--0--3b----|--5----5--3--L--3--3--0--|
-------------------------|-------------------------|-------------------------|


  Q    E  E  E  E   E  E     Q    E   E  E  E  E  E     E  E  E  E  E  E  E  E   
--------------------------|--------------------------|--------------------------|
--------------------------|--------------------------|--------------------------|
--2----2--3--L--3b--0--3--|--5----5S--3--L--3--3--3--|--2--2--2--2--1--1--1--0--|
--------------------------|--------------------------|--------------------------|


  Q    E   E  E  E  E  E     Q    E  E  E  E  E  E     Q    E   E  E  E  E  E   
--------------------------|-------------------------|--------------------------|
--------------------------|-------------------------|--------------------------|
--5----5S--3--L--3--3--0--|--2----2--3--L--3--0--3--|--5----5S--3--L--3--3--3--|
--------------------------|-------------------------|--------------------------|


  Q    E  E  E  E  E  E     E  E  E  E  E  E  E  E     E  E  E  E  E  E  Q     
-------------------------|--------------------------|-------------------------|
-------------------------|--------------------------|-------------------------|
--2----2--3--3--3-----0--|--1--1--1--1--1--1--1--1--|--3--3--3--3--3--3--3----|
-------------------3-----|--------------------------|-------------------------|


                                                      Verse 2                      
  H.           E      S  S        W                   E.  S E.  S E.  S Q     
------------------------12-|--12g14----------------|-------------------------|
------------------12g14----|-----------------------|-------------------------|
--0------------L-----------|-----------------------|-------------------------|
---------------------------|-----------------------|--5---3-L---3-2---1-L----|


  E.  S E.  S E.  S E  S S    E.  S E.  S E.  S E.  S    E.  S Q    E.  S E  S S  
---------------------------|--------------------------|--------------------------|
---------------------------|--------------------------|--------------------------|
---------------------------|--------------------------|--------------------------|
--5---3-L---3-2---1-L--0-3-|--5---3-L---3-2---1-L---0-|--5---3-L----2---1-L--3-5-|


  Pre-chorus                                                                             
  E  E  E  E  E  E  E  E     E  E  E  E  E  E  E  E     E  E  E  E  E  E  E  E   
--------------------------|--------------------------|--------------------------|
--------------------------|--------------------------|--------------------------|
--2--2--2--2--2--2--2--2--|--2--2--2--2--2--2--2--2--|--2--2--2--2--2--2--2-----|
--------------------------|--------------------------|-----------------------3--|


  E  E  E  E   E  E  E  E     E  E  E  E  E  E  E  E     E  E  E  E  E  E  E  E   
---------------------------|--------------------------|--------------------------|
---------------------------|--------------------------|--------------------------|
---------------------------|--2--2--2--2--2--2--2--2--|--2--2--2--2--2--2--2--2--|
--3--3--3--3S--5--5--5--5--|--------------------------|--------------------------|


                                                         Chorus 2                      
  E  E  E  E  E  E  E  E     E  E  E  E  Q      Q        Q    E  E  E  E  E  E   
--------------------------|---------------------------|-------------------------|
--------------------------|---------------------------|-------------------------|
--3--3--3--3--3--3--3--3--|--3--3--3--0--3/----17\----|--5----5--3--L--3--3--0--|
--------------------------|---------------------------|-------------------------|


  Q    E  E  E  E  E  E     Q    E  E  E  E  E  E     Q    E  E  E  E  Q      
-------------------------|-------------------------|-------------------------|
-------------------------|-------------------------|-------------------------|
--2----2--3--L--3--0--3--|--5----5--3--L--3--3--0--|--2----2--2--3--0--3b----|
-------------------------|-------------------------|-------------------------|


  Q    E  E  E  E  E  E     Q    E  E  E  E   E  E     Q    E   E  E  E  E  E   
-------------------------|--------------------------|--------------------------|
-------------------------|--------------------------|--------------------------|
--5----5--3--L--3--3--3--|--2----2--3--L--3b--0--3--|--5----5S--3--L--3--3--3--|
-------------------------|--------------------------|--------------------------|


  E  E  E  E  E  E  E  E     Q    E   E  E  E  E  E     Q    E  E  E  E  E  E   
--------------------------|--------------------------|-------------------------|
--------------------------|--------------------------|-------------------------|
--2--2--2--2--1--1--1--0--|--5----5S--3--L--3--3--3--|--2----2--3--L--3--0--3--|
--------------------------|--------------------------|-------------------------|


  Q    E   E  E  E  E  E     Q    E  E  E  E  E  E     E  E  E  E  E  E  E  E    
--------------------------|-------------------------|---------------------------|
--------------------------|-------------------------|---------------------------|
--5----5S--3--L--3--3--0--|--2----2--3--3--------0--|--1--1--1--1--1--1--1--1S--|
--------------------------|----------------0--3-----|---------------------------|


                              Bridge                                                               
  E  E  E  E  E  E  E  E      H.           E  E     H.           E  E     H.           E  E   
---------------------------|---------------------|---------------------|---------------------|
---------------------------|---------------------|---------------------|---------------------|
--3--3--3--3--3--3--3--L/--|------------------5--|--L------------L--7--|--4------------L--3--|
---------------------------|--0------------L-----|---------------------|---------------------|


  Q    Q    Q     Q        H.           E  E     W                   H.           E  E   
------------------------|---------------------|-------------------|---------------------|
------------------------|---------------------|-------------------|---------------------|
--L----3----3/----9\----|------------------5--|--L----------------|--4------------L--3--|
------------------------|--0------------L-----|-------------------|---------------------|


                            Guitar Solo                                                 
  Q    E  E  Q     Q        Q    E  E  E  E  E  E     Q    E  E  E  E  E  E   
-------------------------|-------------------------|-------------------------|
-------------------------|-------------------------|-------------------------|
--L----3--3--3/----9\----|-------------------------|-------------------------|
-------------------------|--5----5--3--L--3--3--3--|--2----2--1--L--1--1--0--|


  Q    E  E  E  E  E  E     Q    E  E  E  E  E  E     Q    E  E  E  E  E  E   
-------------------------|-------------------------|-------------------------|
-------------------------|-------------------------|-------------------------|
-------------------------|-------------------------|-------------------------|
--5----5--3--L--3--3--0--|--2----2--1--L--1--1--0--|--5----5--3--L--3--3--0--|


  Q    E  E  E  E  E  E     Q    E  E  E  S S E  E     E.  S E  E  E  E   Q      
-------------------------|--------------------------|---------------------------|
-------------------------|--------------------------|---------------------------|
-------------------------|--------------------------|---------------------8\----|
--2----2--1--L--1--1--0--|--5----5--3--L--0-0-3--0--|--2---0-2--1--L--L/--------|


  Guitar Breakdown                                                                               
  W                   W                   W                   H.           E  E    
-------------------|-------------------|-------------------|----------------------|
-------------------|-------------------|-------------------|----------------------|
--2----------------|--L----------------|--L----------------|--L------------L--L/--|
-------------------|-------------------|-------------------|----------------------|


  W                   W                   W                   W                   W                 
-------------------|-------------------|-------------------|-------------------|-------------------|
-------------------|-------------------|-------------------|-------------------|-------------------|
--2----------------|--L----------------|--L----------------|--L----------------|--2----------------|
-------------------|-------------------|-------------------|-------------------|-------------------|


  W                   W                   W                   W                   W                 
-------------------|-------------------|-------------------|-------------------|-------------------|
-------------------|-------------------|-------------------|-------------------|-------------------|
--L----------------|--3----------------|--L----------------|--2----------------|--L----------------|
-------------------|-------------------|-------------------|-------------------|-------------------|


  W                   H.           Q        H        H           W                 
-------------------|---------------------|--------------------|-------------------|
-------------------|---------------------|--------------------|-------------------|
--3----------------|--L------------L\----|--L-----------------|-------------------|
-------------------|---------------------|--------------------|-------------------|


  Chorus 3 - m.122                                                                           
  Q    E  E  E  E  E  E     Q    E  E  E  E   E  E     Q    E  E  E  E  E  E   
-------------------------|--------------------------|-------------------------|
-------------------------|--------------------------|-------------------------|
--5----5--3--L--3--3--3--|--2----2--3--L--3b--0--3--|--5----5--3--L--3--3--0--|
-------------------------|--------------------------|-------------------------|


  Q    E  E  E  E  Q        Q    E  E  E  E  E  E     Q    E  E  E  E    E  E   
-------------------------|-------------------------|---------------------------|
-------------------------|-------------------------|---------------------------|
--2----2--2--3--0--3b----|--5----5--3--L--3--3--0--|--2----2--3--L----------3--|
-------------------------|-------------------------|----------------0--3g5-----|


  Q    E   E  E  E  E  E     E  E  E  E  E  E    Q        Q    E  E  E  E  E  E   
--------------------------|----------------------------|-------------------------|
--------------------------|----------------------------|-------------------------|
--5----5S--3--L--3--3--3--|--2--2--2--2--1--1s--10\----|--5----5--3--L--3--3--0--|
--------------------------|----------------------------|-------------------------|


  Q    E  E  E  E   E  E     Q    E  E  E  E  E  E     Q    E  E  E  E  E  E   
--------------------------|-------------------------|-------------------------|
--------------------------|-------------------------|-------------------------|
--2----2--3--L--3b--0--3--|--5----5--3--L--3--3--0--|--2----2--2--3--------0--|
--------------------------|-------------------------|----------------0--3-----|


                                                        Outro                    
  Q    E  E  E  E  E  E     Q    E  E  E  E    Q        Q.     E  Q    Q     
-------------------------|---------------------------|----------------------|
-------------------------|---------------------------|---------2--L----3----|
--1----1--1--1--1--1--0--|--3----3--3--3--Ls--17\----|--5-------------------|
-------------------------|---------------------------|----------------------|


  E  E  E  E  E  E  E  E     Q    E  E  Q    Q       E  E  E  S S E  E  E  E   
--------------------------|-----------------------|---------------------------|
--------------------------|----------2--L----3----|---------------------------|
--1--1--1--1--3--3--3--0--|--5----5---------------|---------------3--3-----3--|
--------------------------|-----------------------|--3--3--3--3-5-------5-----|


  Q.     E  Q    Q       E  E  E  E  E  E  E   E     Q    E  E  Q    Q     
----------------------|---------------------------|-----------------------|
---------2--L----3----|---------------------------|----------2--L----3----|
--5-------------------|--1--1--1--1--3--3--3b--0--|--5----5---------------|
----------------------|---------------------------|-----------------------|


  E  E  E  S S E  E  E  E     Q.     E  Q    Q       E  E  E  E  E  E  E  E   
---------------------------|----------------------|--------------------------|
---------------------------|---------2--L----3----|--------------------------|
---------------3--3-----3--|--5-------------------|--1--1--1--2--3--3--3--0--|
--3--3--3--3-5-------5-----|----------------------|--------------------------|


  Q    E  E  Q    Q       E  E  E  S S E  E  E  E     Q    E  E  Q    Q     
-----------------------|---------------------------|-----------------------|
----------2--L----3----|---------------------------|----------2--L----3----|
--5----5---------------|---------------3--3-----3--|--5----5---------------|
-----------------------|--3--3--3--3-5-------5-----|-----------------------|


  E  E  E  E  E  E  E   E     Q    E  E  Q    E  E     E  E  E  E  E  E  E  E   
---------------------------|------------------------|--------------------------|
---------------------------|----------2--L----3-----|--------------------------|
--1--1--1--2--3--3--3b--0--|--5----5----------------|--------------0--2--3--4--|
---------------------------|---------------------0--|--3--2--3--4--------------|


  Q    E  E  Q    Q       E  E  E  E  E  E  E   E     Q    E  E  Q    Q     
-----------------------|---------------------------|-----------------------|
----------2--L----3----|---------------------------|----------2--L----3----|
--5----5---------------|--1--1--1--1--3--3--3b--0--|--5----5---------------|
-----------------------|---------------------------|-----------------------|


  E  E  E  S S E  E  E  E     Q    E  E  E  E  Q       E  E  E  E  E  E  E  E   
---------------------------|------------------------|--------------------------|
---------------------------|----------2--L--2--3----|--------------------------|
---------------3--3-----3--|--5----5----------------|--1--1--1--2--3--3--3--0--|
--3--3--3--3-5-------5-----|------------------------|--------------------------|


  Q    E  E  E  E  Q       E  E  E  E  E  E  E  E     Q    E  E  E  E  Q     
------------------------|--------------------------|------------------------|
----------2--L--2--3----|--------------------------|----------2--L--2--3----|
--5----5----------------|--------------3--3-----3--|--5----5----------------|
------------------------|--3--3--3--3--------5-----|------------------------|


  E  E  E  E  E  E  E  E     Q    E  E  Q    Q       E  E  E  S S E  E  E  E   
--------------------------|-----------------------|---------------------------|
--------------------------|----------2--L----3----|---------------------------|
--1--1--1--1--3--3--3--0--|--5----5---------------|---------------3--3-----3--|
--------------------------|-----------------------|--3--3--3--3-5-------5-----|


  Q    E  E  E  E  E  E     E  E  E  E  E  E  E  E     E  E  E   E  E  E   E  E   
-------------------------|--------------------------|----------------------------|
----------2--L--2--3-----|--------------------------|----------------------------|
--5----5--------------0--|--1--1--1--2--3--3--3--0--|--5--5--5S--7--7--7S--8--5--|
-------------------------|--------------------------|----------------------------|


  E  E  E  E  E  E  E  E     E  E  E   E  E  E   E  E     E  E  E  E  E  E  E  E   
--------------------------|----------------------------|--------------------------|
--------------------------|----------------------------|--------------------------|
--------------3--3-----3--|--5--5--5S--7--7--7S--8--5--|--1--1--1--2--3--3--3--0--|
--3--3--3--3--------3-----|----------------------------|--------------------------|


  E  E  E   E  E  E   E  E     E  E  E  E  E  E  E  S S    Q    E  E  E  E  E  E   
----------------------------|---------------------------|-------------------------|
----------------------------|---------------------------|----------2--2--2--3--3--|
--5--5--5S--7--7--7S--8--5--|--------------3--0--0--0-0-|--5----5-----------------|
----------------------------|--3--3--3--5---------------|-------------------------|


  E  E  E  E  E  E  E  E     E  E  E   E  E  E   E  E     E  E  E  E  E  E  E  S S   
--------------------------|----------------------------|---------------------------||
--------------------------|----------------------------|---------------------------||
--1--1--1--1--3--3--3--0--|--5--5--5S--7--7--7S--8--5--|--------------3--0--0--0-0-||
--------------------------|----------------------------|--3--3--3--5---------------||




Duration Legend
---------------
W - whole
H - half
Q - quarter
E - 8th
S - 16th
T - 32nd
X - 64th
. - note dotted


Tablature Legend
----------------
L - tied note
x - dead note
g - grace note
h - hammer on
p - pull off
b - bend
S - shift slide
s - legato slide
/ -  slide into from below or out of upwards
\ -  slide into from above or out of downwards






Comments


Popular Saraya tabs & chords
Love Has Taken Its Toll Bass Tabs
Love Has Taken Its Toll Chords
Seducer Chords
Love Has Taken Its Toll Tabs
Seducer Tabs
Love Has Taken Its Toll Ukulele
Seducer Ukulele


Song lyrics



↑ Back to top | Tablatures and chords are parodies/interpretations of the original songs. You may use it for private study, scholarship, research or language learning purposes only
© 2014 AZChords.com Contact us | Privacy policy | DMCA | Add/correct tabs | Request tabs | Top 50 tabs