>
 >
Seducer

Seducer Guitar Tabs

Saraya - Seducer chords, tabs, tablatures, lyrics

Guitar lessons | Add/correct | Request | Top 50 tabs Artists:  A B C D E F G H I J K L M N O P Q R S T U V W X Y Z 0-9

Seducer Guitar Tabs – Saraya

CD, Sheet music, Poster

Do you like Seducer? Share with your friends now
Bass TabsChordsTabsUkulele


Tuning: Standard


Rhythm

      pick scrape - m.7
      W                    W                    E  E  E  E  E  E  E  E     E  E  E  E  E 
E  E  E
E||---------------------|--------------------|--------------------------|--------------------------|
B||---------------------|--------------------|--------3--------3-----3--|--------3-----------3-----|
G||---------------------|--------------------|-----2--------2-----------|-----0-----0-----0-----0--|
D||---x\----------------|--x\----------------|--0--------2--------3-----|--------------------------|
A||---x\----------------|--x\----------------|--------------------------|--1-----------3-----------|
E||---------------------|--------------------|--------------------------|--------------------------|


  E  E  E  E  E  E  E  E     E  E  E  E  E  E  E  E     E  E  E  E  E  E  E  E
--------------------------|--------------------------|--------------------------|
--------3--------3-----3--|--------3-----------3-----|--------3--------3-----3--|
-----2--------2-----------|-----0-----0-----0-----0--|-----2--------2-----------|
--0--------2--------3-----|--------------------------|--0--------2--------3-----|
--------------------------|--------------3-----------|--------------------------|
--------------------------|--3-----------------------|--------------------------|


                             Verse 1
  E  E  E  E  E  E  E  E     W                   W                   W
--------------------------|-------------------|-------------------|-------------------|
--------3-----------3-----|-------------------|-------------------|-------------------|
-----0-----0-----0-----0--|--2----------------|--L----------------|--L----------------|
--------------------------|--2----------------|--L----------------|--L----------------|
--1-----------3-----------|--0----------------|--L----------------|--L----------------|
--------------------------|-------------------|-------------------|-------------------|

  m.26
                                  PM PM    PM PM PM PM       PM PM
  H        E  S S  Q        E  E  E  E  E  E  E  E     E  E  E  E  H
-------------------------|--------------------------|-----------------------|
-------------------------|--------------------------|-----------------------|
-------------------------|--2--------7--------------|--7--------5--L--------|
-------------------------|--2--------5--------------|--4--------3--L--------|
--------------x-x--------|--0--0--0-----0--0--0--0--|-----0--0--------------|
--------------x-x-12\----|--------------------------|-----------------------|


     PM PM    PM PM PM PM       PM PM                       PM PM    PM PM PM PM
  E  E  E  E  E  E  E  E     E  E  E  E   E  E  E  E     E  E  E  E  E  E  E  E
--------------------------|------------------0--------|--------------------------|
--------------------------|---------------------0-----|--------------------------|
--2--------7--------------|--7--------4s--5--------5--|--2--------7--------------|
--2--------5--------------|--4--------2s--3-----------|--2--------5--------------|
--0--0--0-----0--0--0--0--|-----0--0------------------|--0--0--0-----0--0--0--0--|
--------------------------|---------------------------|--------------------------|


     PM PM
  E  E  E  E  Q       Q        Q    E  E  E  E  Q       Q    E  E  E  E  Q
----------------------------|------------------------|------------------------|
----------------------------|-------3-----------3----|-------3-----------3----|
--7--------5--L-------------|--2----2-----------2----|-------2-----------2----|
--4--------3--L-------------|--2---------------------|------------------------|
-----0--0-------------------|--0---------------------|------------------------|
-------------------7g12\----|----------3--L--3-------|--2-------1--L--1-------|


  Pre-chorus
  PM PM PM PM PM PM PM                                  PM PM PM PM PM PM PM
  E  E  E  E  E  E  E  E     E  E  Q      E  E  Q       E  E  E  E  E  E  E  E
--------------------------|---------------------5----|--------------------------|
--------------------------|-----3------------5-------|--------------------------|
--------4--------2--------|--------------------------|--------4--------2--------|
-----4--------4-----4--5--|--L-----5----5g7----------|-----4--------4-----4--5--|
--2--------2--------------|--------------------------|--2--------2--------------|
--------------------------|--------------------------|--------------------------|


                             PM PM PM PM PM PM PM
  E  E  Q      E  E  Q       E  E  E  E  E  E  E  E     E  E  Q      E  E  Q
---------------------5----|--------------------------|---------------------5----|
-----3------------5-------|--------------------------|-----3------------5-------|
--------------------------|--------4--------2--------|--------------------------|
--L-----5----5g7----------|-----4--------4-----4--5--|--L-----5----5g7----------|
--------------------------|--2--------2--------------|--------------------------|
--------------------------|--------------------------|--------------------------|


                                                                   Chorus 1
   E   E   E   E   E   E   E   E      E   E   E   E   H            E  E  E  E  E  E  Q
----------------------------------|-----------------------------|-------------------------|
----------------------------------|------------------12---------|--------3-----------3----|
--12------11--12--11------11--12--|--11------11--12--14b--------|-----2-----------0-------|
------10--------------10----------|------10---------------------|--0----------------------|
----------------------------------|-----------------------------|-----------3--L----------|
----------------------------------|-----------------------------|-------------------------|


  Q    E  E  E  E  Q       E  E  E  E  E  E  Q       Q    Q    E   E  Q
------------------------|-------------------------|-------------------------|
-------3-----------3----|--------3-----------3----|-------3-----------------|
----------------0-------|-----2-----------0-------|-------------------------|
------------------------|--0----------------------|-------------------------|
--2-------3--L----------|-----------3--L----------|--2---------3p--0--3b----|
------------------------|-------------------------|-------------------------|


  Q    E  E  E  E  Q       Q    E  E  E  E   Q        E  E  E  E  E  E  Q       Q    Q   
H
------------------------|--------------------------|-------------------------|---------------------|
-------3-----------3----|-------3------------------|--------3-----------3----|-------3-------------|
----------------0-------|----------------0---------|-----2-----------0-------|------------3--------|
--0---------------------|-------------------12\----|--0----------------------|------------3--------|
----------3--L----------|--2-------3--L-----12\----|-----------3--L----------|--2---------1--------|
------------------------|--------------------------|-------------------------|---------------------|


  E  E  E  E  E  E  Q       Q    E  E  E  E  Q       E  E  E  E  E  E  Q
-------------------------|------------------------|-------------------------|
--------3-----------3----|-------3-----------3----|--------3-----------3----|
-----2-----------0-------|----------------0-------|-----2-----------0-------|
--0----------------------|------------------------|--0----------------------|
-----------3--L----------|--2-------3--L----------|-----------3--L----------|
-------------------------|------------------------|-------------------------|


                                                                                  Half-time
                           PM PM PM PM PM PM PM PM    PM PM
  Q    E  E  E  E  Q       E  E  E  E  E  E  E  E     E  E  E  E  E  E  E  E      W
------------------------|--------------------------|---------------------------|-------------------|
-------3-----------3----|--------------------------|---------------------------|-------------------|
----------------0-------|--------------------------|---------------------------|--2----------------|
------------------------|--------------------------|--------5--5--5--5--5--L\--|--2----------------|
--2-------3--L----------|--1--1--1--1--1--1--1--1--|--3--3--3--3--3--3--3--L\--|--0----------------|
------------------------|--------------------------|---------------------------|-------------------|


                      Verse 2
                                                             NH  NH
  W                   W                   H        Q    E    S   S    W
-------------------|-------------------|---------------------------|-------------------|
-------------------|-------------------|---------------------------|-------------------|
--L----------------|-------------------|---------------------------|-------------------|
--L----------------|-------------------|---------------------------|-------------------|
--L----------------|-------------------|-----------------------5-|--L----------------|
-------------------|-------------------|-------------------5-----|-------------------|


                             Pre-chorus
                             PM PM PM PM PM PM PM
  H.           S T T  E      E  E  E  E  E  E  E  E     E  E  Q      E  E  Q
--------------------------|--------------------------|--------------------------|
--------------------------|--------------------------|-----3------------5--5----|
--------------------------|--------4--------2--------|--------------------------|
--------------------------|-----4--------4-----4--5--|--L-----5----5g7----------|
--L--------------x-x------|--2--------2--------------|--------------------------|
-----------------x-x-12\--|--------------------------|--------------------------|


  PM PM PM PM PM PM PM                                  PM PM PM PM PM PM PM
  E  E  E  E  E  E  E  E     E  E  Q      E  E  Q       E  E  E  E  E  E  E  E
--------------------------|--------------------------|--------------------------|
--------------------------|-----3------------5--5----|--------------------------|
--------4--------2--------|--------------------------|--------4--------2--------|
-----4--------4-----4--5--|--L-----5----5g7----------|-----4--------4-----4--5--|
--2--------2--------------|--------------------------|--2--------2--------------|
--------------------------|--------------------------|--------------------------|


  E  E  Q      E  E  Q       E   E  E  E  E   E  E  E     E   E  E   E   H
--------------------------|----------------------------|-----------------7---------|
-----3------------5--5----|--8------7--8--7------7--8--|--7------7S--8--10b--------|
--------------------------|----------------------------|---------------------------|
--L-----5----5g7----------|-----10-----------10--------|-----10--------------------|
--------------------------|----------------------------|---------------------------|
--------------------------|----------------------------|---------------------------|


  Chorus 2
  E  E  E  E  E  E  Q       Q    E  E  E  E  Q       E  E  E  E  E  E  Q
-------------------------|------------------------|-------------------------|
--------3-----------3----|-------3-----------3----|--------3-----------3----|
-----2-----------0-------|----------------0-------|-----2-----------0-------|
--0----------------------|------------------------|--0----------------------|
-----------3--L----------|--2-------3--L----------|-----------3--L----------|
-------------------------|------------------------|-------------------------|


  Q    Q    E   E  Q        Q    E  E  E  E  Q       Q    E  E  E  E   Q
-------------------------|------------------------|--------------------------|
-------3-----------------|-------3-----------3----|-------3------------------|
-------------------------|----------------0-------|----------------0---------|
-------------------------|--0---------------------|-------------------12\----|
--2---------3p--0--3b----|----------3--L----------|--2-------3--L-----12\----|
-------------------------|------------------------|--------------------------|


  E  E  E  E  E  E  Q       Q    Q    H           E  E  E  E  E  E  Q       Q    E  E  E 
E  Q
-------------------------|---------------------|-------------------------|------------------------|
--------3-----------3----|-------3-------------|--------3-----------3----|-------3-----------3----|
-----2-----------0-------|------------3--------|-----2-----------0-------|----------------0-------|
--0----------------------|------------3--------|--0----------------------|------------------------|
-----------3--L----------|--2---------1--------|-----------3--L----------|--2-------3--L----------|
-------------------------|---------------------|-------------------------|------------------------|


                                                     PM PM PM PM PM PM PM PM
  E  E  E  E  E  E  Q       Q    E  E  E  E  Q       E  E  E  E  E  E  E  E
-------------------------|------------------------|--------------------------|
--------3-----------3----|-------3-----------3----|--------------------------|
-----2-----------0-------|----------------0-------|--------------------------|
--0----------------------|------------------------|--------------------------|
-----------3--L----------|--2-------3--L----------|--1--1--1--1--1--1--1--1--|
-------------------------|------------------------|--------------------------|


                              Bridge
  PM PM
  E  E  E  E  E  E  E  E      H.           E  E     W                   H.           E  E
---------------------------|---------------------|-------------------|---------------------|
---------------------------|---------------------|-------------------|---------------------|
---------------------------|--9------------L--7--|--L----------------|---------------------|
--------5--5--5--5--5--L\--|--9------------L--7--|--L----------------|--7------------L--5--|
--3--3--3--3--3--3--3--L\--|--7------------L--5--|--L----------------|--4------------L--3--|
---------------------------|---------------------|-------------------|---------------------|


  W                   H.           E  E     W                   H.           E  E
-------------------|---------------------|-------------------|---------------------|
-------------------|---------------------|-------------------|---------------------|
-------------------|--9------------L--7--|--L----------------|---------------------|
--L----------------|--9------------L--7--|--L----------------|--7------------L--5--|
--L----------------|--7------------L--5--|--L----------------|--4------------L--3--|
-------------------|---------------------|-------------------|---------------------|


                      Guitar Solo
  W                   Q    E  E  Q.     E     Q    E  E  H           Q    E  E  Q.     E
-------------------|-----------------------|----------------------|-----------------------|
-------------------|-----------------------|----------------------|-----------------------|
-------------------|-----------------------|----------------------|-----------------------|
--L----------------|-----------------------|----------------------|-----------------------|
--L----------------|--0----0---------------|----------------------|--0----0---------------|
-------------------|----------3--L------3--|--2----2--1--L--------|----------3--L------3--|


  Q    E  E  H           Q    E  E  Q.     E     Q    E  E  H           Q    E  E  Q.    
E
----------------------|-----------------------|----------------------|-----------------------|
----------------------|-----------------------|----------------------|-----------------------|
----------------------|-----------------------|----------------------|-----------------------|
----------------------|-----------------------|----------------------|-----------------------|
----------------------|--0----0---------------|----------------------|--0----0---------------|
--2----2--1--L--------|----------3--L------3--|--2----2--1--L--------|----------3--L------3--|


                         Guitar Breakdown
                         PM PM    PM PM PM PM
  Q    E  E  H           E  E  E  E  E  E  E  E     E  E  Q      E  E  E  E
----------------------|--------------------------|----------------------------|
----------------------|--------------------------|-----3------------5---------|
----------------------|--------4--------2--------|----------------------------|
----------------------|-----4--------4-----4--5--|--L-----5----5g7-----7--L\--|
----------------------|--2--------2--------------|----------------------------|
--2----2--1--L--------|--------------------------|----------------------------|


  PM PM    PM PM PM PM                                    PM PM    PM PM PM PM
  E  E  E  E  E  E  E  E     E  E  Q      E  E  E  E      E  E  E  E  E  E  E  E
--------------------------|----------------------------|--------------------------|
--------------------------|-----3------------5---------|--------------------------|
--------4--------2--------|----------------------------|--------4--------2--------|
-----4--------4-----4--5--|--L-----5----5g7-----7--L\--|-----4--------4-----4--5--|
--2--------2--------------|----------------------------|--2--------2--------------|
--------------------------|----------------------------|--------------------------|


                               PM PM    PM PM PM PM
  E  E  Q      E  E  E  E      E  E  E  E  E  E  E  E     E  E  Q      E  E  E  E
----------------------------|--------------------------|----------------------------|
-----3------------5---------|--------------------------|-----3------------5---------|
----------------------------|--------4--------2--------|----------------------------|
--L-----5----5g7-----7--L\--|-----4--------4-----4--5--|--L-----5----5g7-----7--L\--|
----------------------------|--2--------2--------------|----------------------------|
----------------------------|--------------------------|----------------------------|


  PM PM    PM PM PM PM
  E  E  E  E  E  E  E  E     E  E  Q      E  E  E  E      E   E  E  E  E   E  E  E
--------------------------|----------------------------|----------------------------|
--------------------------|-----3------------5---------|--8------7--8--7------7--8--|
--------4--------2--------|----------------------------|----------------------------|
-----4--------4-----4--5--|--L-----5----5g7-----7--L\--|-----10-----------10--------|
--2--------2--------------|----------------------------|----------------------------|
--------------------------|----------------------------|----------------------------|


  E   E  E  E  E  E  E  E     E  E  E  E  E  E  E  E     E  E  E  E  E  E  E  E
---------------7-----------|--------------------------|--------------7-----------|
--7------7--8-----8--7--8--|--7-----7--8--7-----7--8--|--7-----7--8-----8--7--8--|
---------------------------|--------------------------|--------------------------|
-----10--------------------|-----9-----------9--------|-----9--------------------|
---------------------------|--------------------------|--------------------------|
---------------------------|--------------------------|--------------------------|


                                                            \1/   \1/     \1/  \1/
  E   E  E  E  E   E  E  E     E   E  E   E   H             E.    S   E   E    H
----------------------------|-----------------7---------|---7-----7---L---7----7---------|
--7------7--8--7------7--8--|--7------7S--8--10b--------|--10b---10b--L--10b--10b--------|
----------------------------|---------------------------|--------------------------------|
-----10-----------10--------|-----10--------------------|--------------------------------|
----------------------------|---------------------------|--------------------------------|
----------------------------|---------------------------|--------------------------------|


  E  E  E  E  E  E  Q       Q    E  E  E  E  Q       E  E  E  E  E  E  Q
-------------------------|------------------------|-------------------------|
--------3-----------3----|-------3-----------3----|--------3-----------3----|
-----2-----------0-------|----------------0-------|-----2-----------0-------|
--0----------------------|------------------------|--0----------------------|
-----------3--L----------|--2-------3--L----------|-----------3--L----------|
-------------------------|------------------------|-------------------------|


                               Chorus 3
  E  E  E  E  E  S S  Q        E  E  E  E  E  E  Q       Q    E  E  E  E  Q
----------------------------|-------------------------|------------------------|
----------------------------|--------3-----------3----|-------3-----------3----|
-----0--L--0--0-------------|-----2-----------0-------|----------------0-------|
----------------------------|--0----------------------|------------------------|
--3--2--L--3--3--x-x--------|-----------3--L----------|--2-------3--L----------|
-----------------x-x-12\----|-------------------------|------------------------|


  E  E  E  E  E  E  Q       Q    Q    E   E  Q        Q    E  E  E  E  Q
-------------------------|-------------------------|------------------------|
--------3-----------3----|-------3-----------------|-------3-----------3----|
-----2-----------0-------|-------------------------|----------------0-------|
--0----------------------|-------------------------|--0---------------------|
-----------3--L----------|--2---------3p--0--3b----|----------3--L----------|
-------------------------|-------------------------|------------------------|


  Q    E  E  E  E   Q        E  E  E  E  E  E  Q       Q    Q    H
--------------------------|-------------------------|---------------------|
-------3------------------|--------3-----------3----|-------3-------------|
----------------0---------|-----2-----------0-------|------------3--------|
-------------------12\----|--0----------------------|------------3--------|
--2-------3--L-----12\----|-----------3--L----------|--2---------1--------|
--------------------------|-------------------------|---------------------|


  E  E  E  E  E  E  Q       Q    E  E  E  E  Q       E  E  E  E  E  E  Q
-------------------------|------------------------|-------------------------|
--------3-----------3----|-------3-----------3----|--------3-----------3----|
-----2-----------0-------|----------------0-------|-----2-----------0-------|
--0----------------------|------------------------|--0----------------------|
-----------3--L----------|--2-------3--L----------|-----------3--L----------|
-------------------------|------------------------|-------------------------|


  Q    E  E  E  E  Q       Q    E  E  E  E  E  E     Q    E  E  E  E  E  E
------------------------|-------------------------|--------------------------|
-------3-----------3----|-------------------------|--------------------------|
----------------0-------|--3----------------------|--5-----------------------|
------------------------|--3----3--3--3--3--3--3--|--5----5--5--5--5--5--L\--|
--2-------3--L----------|--1----1--1--1--1--1--1--|--3----3--3--3--3--3--L\--|
------------------------|-------------------------|--------------------------|


  Outro
  E  E  E  E  E  E  E  E     E  E  E  E  E  E  E  E     E  E  E  E  E  E  E  E
--------------------------|--------------------------|--------------------------|
--------3--------3-----3--|--------3-----------3-----|--------3--------3-----3--|
-----2--------2-----------|-----0-----0-----0-----0--|-----2--------2-----------|
--0--------2--------3-----|--------------------------|--0--------2--------3-----|
--------------------------|--1-----------3-----------|--------------------------|
--------------------------|--------------------------|--------------------------|


  E  E  E  E  E  E  E  E     E  E  E  E  E  E  E  E     E  E  E  E  E  E  E  E
--------------------------|--------------------------|--------------------------|
--------3-----------3-----|--------3--------3-----3--|--------3-----------3-----|
-----0-----0-----0-----0--|-----2--------2-----------|-----0-----0-----0-----0--|
--------------------------|--0--------2--------3-----|--------------------------|
--------------3-----------|--------------------------|--1-----------3-----------|
--3-----------------------|--------------------------|--------------------------|


  E  E  E  E  E  E  E  E     E  E  E  E  E  E  E  E     E  E  E  E  E  E  E  E
--------------------------|--------------------------|--------------------------|
--------3--------3-----3--|--------3-----------3-----|--------3--------3-----3--|
-----2--------2-----------|-----0-----0-----0-----0--|-----2--------2-----------|
--0--------2--------3-----|--------------------------|--0--------2--------3-----|
--------------------------|--------------3-----------|--------------------------|
--------------------------|--3-----------------------|--------------------------|


  E  E  E  E  E  E  E  E     E  E  E  E  E  E  E  E     E  E  E  E  E  E  E  E
--------------------------|--------------------------|--------------------------|
--------3-----------3-----|--------3--------3-----3--|--------3-----------3-----|
-----0-----0-----0-----0--|-----2--------2-----------|-----0-----0-----0-----0--|
--------------------------|--0--------2--------3-----|--------------------------|
--1-----------3-----------|--------------------------|--------------3-----------|
--------------------------|--------------------------|--3-----------------------|


  E  E  E  E  E  E  E  E     E  E  E  E  E  E  E  E     E  E  E  E  E  E  E  E
--------------------------|--------------------------|--------------------------|
--------3--------3-----3--|--------3-----------3-----|--------3--------3-----3--|
-----2--------2-----------|-----0-----0-----0-----0--|-----2--------2-----------|
--0--------2--------3-----|--------------------------|--0--------2--------3-----|
--------------------------|--1-----------3-----------|--------------------------|
--------------------------|--------------------------|--------------------------|


  E  E  E  E  E  E  E  E     E  E  E  E  E  E  E  E     E  E  E  E  E  E  E  E
--------------------------|--------------------------|--------------------------|
--------3-----------3-----|--------3--------3-----3--|--------3-----------3-----|
-----0-----0-----0-----0--|-----2--------2-----------|-----0-----0-----0-----0--|
--------------------------|--0--------2--------3-----|--------------------------|
--------------3-----------|--------------------------|--1-----------3-----------|
--3-----------------------|--------------------------|--------------------------|


  E  E  E  E  E  E  E  E     E  E  E  E  E  E  E  E     E  E  E  E  E  E  E  E
--------------------------|--------------------------|--------------------------|
--------3--------3-----3--|--------3-----------3-----|--------3--------3-----3--|
-----2--------2-----------|-----0-----0-----0-----0--|-----2--------2-----------|
--0--------2--------3-----|--------------------------|--0--------2--------3-----|
--------------------------|--------------3-----------|--------------------------|
--------------------------|--3-----------------------|--------------------------|


  E  E  E  E  E  E  E  E     E  E  E  E  E  E  E  E     E  E  E  E  E  E  E  E
--------------------------|--------------------------|--------------------------|
--------3-----------3-----|--------3--------3-----3--|--------3-----------3-----|
-----0-----0-----0-----0--|-----2--------2-----------|-----0-----0-----0-----0--|
--------------------------|--0--------2--------3-----|--------------------------|
--1-----------3-----------|--------------------------|--------------3-----------|
--------------------------|--------------------------|--3-----------------------|


  E  E  E  E  E  E  E  E     E  E  E  E  E  E  E  E     E  E  E  E  E  E  E  E
--------------------------|--------------------------|--------------------------|
--------3--------3-----3--|--------3-----------3-----|--------3--------3-----3--|
-----2--------2-----------|-----0-----0-----0-----0--|-----2--------2-----------|
--0--------2--------3-----|--------------------------|--0--------2--------3-----|
--------------------------|--1-----------3-----------|--------------------------|
--------------------------|--------------------------|--------------------------|


  E  E  E  E  E  E  E  E     E  E  E  E  E  E  E  E     E  E  E  E  E  E  E  E
--------------------------|--------------------------|--------------------------|
--------3-----------3-----|--------3--------3-----3--|--------3-----------3-----|
-----0-----0-----0-----0--|-----2--------2-----------|-----0-----0-----0-----0--|
--------------------------|--0--------2--------3-----|--------------------------|
--------------3-----------|--------------------------|--1-----------3-----------|
--3-----------------------|--------------------------|--------------------------|


  E  E  E  E  E  E  E  E     E  E  E  E  E  E  E  E     E  E  E  E  E  E  E  E
--------------------------|--------------------------|--------------------------|
--------3--------3-----3--|--------3-----------3-----|--------3--------3-----3--|
-----2--------2-----------|-----0-----0-----0-----0--|-----2--------2-----------|
--0--------2--------3-----|--------------------------|--0--------2--------3-----|
--------------------------|--------------3-----------|--------------------------|
--------------------------|--3-----------------------|--------------------------|


  E  E  E  E  E  E  E  E     E  E  E  E  E  E  E  E     E  E  E  E  E  E  E  E
--------------------------|--------------------------|--------------------------|
--------3-----------3-----|--------3--------3-----3--|--------3-----------3-----|
-----0-----0-----0-----0--|-----2--------2-----------|-----0-----0-----0-----0--|
--------------------------|--0--------2--------3-----|--------------------------|
--1-----------3-----------|--------------------------|--------------3-----------|
--------------------------|--------------------------|--3-----------------------|


  E  E  E  E  E  E  E  E     E  E  E  E  E  E  E  E     E  E  E  E  E  E  E  E
--------------------------|--------------------------|--------------------------|
--------3--------3-----3--|--------3-----------3-----|--------3--------3-----3--|
-----2--------2-----------|-----0-----0-----0-----0--|-----2--------2-----------|
--0--------2--------3-----|--------------------------|--0--------2--------3-----|
--------------------------|--1-----------3-----------|--------------------------|
--------------------------|--------------------------|--------------------------|


  E  E  E  E  E  E  E  E
--------------------------||
--------3-----------3-----||
-----0-----0-----0-----0--||
--------------------------||
--------------3-----------||
--3-----------------------||

Lead Guitar

      Chorus 1 - m.49
      Q      E    E    E      E   Q         W                    W
E||-------------------------------------|---------------------|-------------------|
B||--10-----10---10---------------------|---------------------|-------------------|
G||--12b----12b--12b--12pbr---L--10b----|---------------------|-------------------|
D||-------------------------------------|--12~----------------|--L----------------|
A||-------------------------------------|---------------------|-------------------|
E||-------------------------------------|---------------------|-------------------|


  W                   H        E  S S  Q        W                   W
-------------------|-------------------------|-------------------|-------------------|
-------------------|-------------------------|-------------------|-------------------|
-------------------|-------------------------|-------------------|-------------------|
-------------------|-------------------------|-------------------|-------------------|
-------------------|--------------x-x--------|-------------------|-------------------|
-------------------|--------------x-x-12\----|-------------------|-------------------|


                                    \1/
  H        E.   S   S  S   S  S     W                   W                   W
--------------------------------|--------------------|-------------------|-------------------|
---------------12b--L-12b-10----|--10----------------|-------------------|-------------------|
-----------------------------12-|--------------------|-------------------|-------------------|
--------------------------------|--------------------|-------------------|-------------------|
--------------------------------|--------------------|-------------------|-------------------|
--------------------------------|--------------------|-------------------|-------------------|

  Chorus 2 - m.78
  E   E    E   E   E   E   E   E      W                    H.            E   E
----------------------------------|---------------------|------------------------|
--------------10------------------|---------------------|------------------------|
-----12b---L------12--10----------|---------------------|------------------------|
--------------------------12--10--|--12~----------------|--L-------------L---L\--|
----------------------------------|---------------------|------------------------|
----------------------------------|---------------------|------------------------|


  W                   H        E  S S  Q        W                   W
-------------------|-------------------------|-------------------|-------------------|
-------------------|-------------------------|-------------------|-------------------|
-------------------|-------------------------|-------------------|-------------------|
-------------------|-------------------------|-------------------|-------------------|
-------------------|--------------x-x--------|-------------------|-------------------|
-------------------|--------------x-x-12\----|-------------------|-------------------|

  Bridge - m.88
  Q    Q      Q      Q        H         Q.       E      H        Q     Q
---------------------------|-------------------------|-----------------------|
---------------------------|--5---------L~-------7---|--L--------7-----7-----|
--------------x\-----x\----|--7b--------Lb~------9b--|--L--------9b----9b----|
--------------x\-----x\----|-------------------------|-----------------------|
---------------------------|-------------------------|-----------------------|
-------5/------------------|-------------------------|-----------------------|


                                                              Guitar Solo
   Q.       E   Q.       E      Q.      E   E   E   E   E     E  E   E  E  Q     E  E
-----------------------------|-----------------------------|---------------------------|
--12-------12---L~------13---|--L------13---L--11------11--|---------------------------|
--14b------14b--L~------15b--|--L------15b--L------12------|------------5--L~----7--5--|
-----------------------------|-----------------------------|--7--L~--7-----------------|
-----------------------------|-----------------------------|---------------------------|
-----------------------------|-----------------------------|---------------------------|


  Q.      E   E  E   E   E     Q     E   E    E    E    E    S  S
----------------------------|-------------------------------17----|
----------------------------|-----------20b---L~--20b--20b-----20-|
--7b------7~--L--5b---------|-------------------------------------|
---------------------7p--5--|--7~----7----------------------------|
----------------------------|-------------------------------------|
----------------------------|-------------------------------------|


   S  S   S  S  S   S  S   S  E   S  S  S   S  S   S     Q      E   E   Q      E   E
------------17---------------------------------------|---------------------------------|
--17-----17----20p-17--------------------------------|---------------------------------|
-----19b--------------20p-19-17--19----17h-18--------|-------------17---L~----19--17b--|
------------------------------------19--------19p-17-|--19~----19----------------------|
-----------------------------------------------------|---------------------------------|
-----------------------------------------------------|---------------------------------|


   E    E   E   E    E   E   E   E       E   E   E    E     E   E    S  S  E
---------------20b---L---L--17--22b--|---L--22--22b--22b~---L\------17----20b--|
--20b---L--17------------------------|---------------------------------17------|
-------------------------------------|--------------------------9/-------------|
-------------------------------------|-----------------------------------------|
-------------------------------------|-----------------------------------------|
-------------------------------------|-----------------------------------------|


                                                      Guitar Breakdown
                                                                                       \1/
   E   E    S  S   S  S  S   S  S   S  S  S  S  S     H         H            H         H
---L--20b--17-------------------------------------|-----------------------|-----------24--------|
--------------20p-17----20p-17--------------------|-----------------------|---------------------|
---------------------19--------20p-19-17----19----|--16---------L~--------|--L------------------|
-----------------------------------------19----19-|-----------------------|---------------------|
--------------------------------------------------|-----------------------|---------------------|
--------------------------------------------------|-----------------------|---------------------|

  Chorus 3 - m.128
                                        |---3---|   |---3---|   |---3---|   |---3---|
  Q    E   E     E   E   Q           E   E   E   E   E   E   E   E   E   E   E   E
--------------------10-----------|--13--10--13--10-----------------------------------|
----------13b~---L------13pbr----|------------------13--12--10-----------------------|
---------------------------------|------------------------------13--12--10------10b--|
---------------------------------|------------------------------------------12-------|
---------------------------------|---------------------------------------------------|
---------------------------------|---------------------------------------------------|


   W                    H.            Q        W                   W
---------------------|----------------------|-------------------|-------------------|
---------------------|----------------------|-------------------|-------------------|
---------------------|----------------------|-------------------|-------------------|
--12~----------------|--L-------------L\----|-------------------|-------------------|
---------------------|----------------------|-------------------|-------------------|
---------------------|----------------------|-------------------|-------------------|


   Outro - m.141
       |---3---|
   E   S   S   S  E    E  E.   S  E      E      W                   W
--------------------------------------------|--------------------|-------------------|
--11--10h-11p-10----------------------------|--------------------|-------------------|
-----------------12p--10--9---10--L--10g12--|--------------------|-------------------|
--------------------------------------------|--12----------------|--L----------------|
--------------------------------------------|--------------------|-------------------|
--------------------------------------------|--------------------|-------------------|


  H        E   E   E   E      E.    S  E   E   E.    S  E   E      H         H
--------------------------|------------------------------------|-----------------------|
------------------15--17--|--17b---17--L------18b---18--L--17--|--15---------L~--------|
--------------14----------|---------------15-------------------|-----------------------|
--L--------L--------------|------------------------------------|-----------------------|
--------------------------|------------------------------------|-----------------------|
--------------------------|------------------------------------|-----------------------|


   W                   H        E   E    Q        E   E      S  E.   E.   S  E   E
--------------------|--------------18b---L----|---L--18pbr---L-17---15---17--L--17b--|
---L----------------|-------------------------|--------------------------------------|
--------------------|-------------------------|--------------------------------------|
--------------------|-------------------------|--------------------------------------|
--------------------|-------------------------|--------------------------------------|
--------------------|-------------------------|--------------------------------------|


   Q     H.               W                   H        H
--17-----L~------------|--L----------------|--L-----------------|
-----------------------|-------------------|--------------------|
-----------------------|-------------------|--------------------|
-----------------------|-------------------|--------------------|
-----------------------|-------------------|--------------------|
-----------------------|-------------------|--------------------|


  H         S   S  S  S  S  S  S  S     W                    W
------------------------------------|---------------------|-------------------|
-----------10h-11-10----------------|---------------------|-------------------|
---------------------12-10p-9-10p-9-|---------------------|-------------------|
------------------------------------|--12~----------------|--L----------------|
------------------------------------|---------------------|-------------------|
------------------------------------|---------------------|-------------------|


   H        E     E   E   E      E   E   E    E   Q      E   E       Q    H.
-----------------------------|------20--18b--17--17S----18-------|----------------------|
---------------------15--17--|--18--------------------------20b--|---L----L~------------|
---------------9g14----------|-----------------------------------|----------------------|
---L-------------------------|-----------------------------------|----------------------|
-----------------------------|-----------------------------------|----------------------|
-----------------------------|-----------------------------------|----------------------|


               \1/              \1/
   Q.      E   Q     E.   S     Q    Q    H           E   E    E   E    E   E   E   E
----------17--17-----L----L-|---L------------------|-----------------------------------|
---L------------------------|----------------------|--------------17b---L---L--15------|
----------------------------|----------------------|-------------------------------14--|
----------------------------|----------------------|-----14h--15-----------------------|
----------------------------|----------------------|-----------------------------------|
----------------------------|----------------------|-----------------------------------|


                                                                              begin fade
                                 |---3---|   |---3--|  |---3--|  |--3--|
   Q.       E   Q.       E       E   E   E   E  E   E  E   E  E  E  E  E      H.         
  Q
-----------------------------|--------------------------------------------|-----------------------|
-----------------------------|--11--10------------------------------------|-----------------------|
--17b------17---L~-------L\--|----------12--10--9-------------------------|-----------------------|
-----------------------------|---------------------10---------------------|-----------------------|
-----------------------------|----------------------------10--8--7--8--7--|-----------------------|
-----------------------------|-------------------------8------------------|--10-------------L~----|

12 String - left

     Q.     E  Q    Q       H        H           Q.     E  Q    Q       H        H
E||----------------------|--------------------|----------------------|--------------------|
B||----------------------|--------------------|----------------------|--------------------|
G||----------------------|--------------------|----------------------|--------------------|
D||--0------2--L----3----|--------------------|--0------2--L----3----|--------------------|
A||----------------------|--1--------3--------|----------------------|-----------3--------|
E||----------------------|--------------------|----------------------|--3-----------------|


  Q.     E  Q    Q       H        H           Q.     E  Q    Q       H        H
----------------------|--------------------|----------------------|--------------------|
----------------------|--------------------|----------------------|--------------------|
----------------------|--------------------|----------------------|--------------------|
--0------2--L----3----|--------------------|--0------2--L----3----|--------------------|
----------------------|--1--------3--------|----------------------|-----------3--------|
----------------------|--------------------|----------------------|--3-----------------|

12 String - right

     E   E   Q     E   E   E   E      E  E   Q.     E   Q        E   E   Q     E   E   E 
 E
E||---------10--------10------10--|---L-----10---------10----|---L------10--------10------10--|
B||-----10--------10------10------|------8----------8--------|------10--------10------10------|
G||-------------------------------|--------------------------|--------------------------------|
D||-------------------------------|--------------------------|--------------------------------|
A||-------------------------------|--------------------------|--------------------------------|
E||-------------------------------|--------------------------|--------------------------------|


   E  E   Q.     E   Q        E   E   Q     E   E   E   E      E  E   Q.     E   Q
---L-----10---------10----|---L------10--------10------10--|---L-----10---------10----|
------8----------8--------|------10--------10------10------|------8----------8--------|
--------------------------|--------------------------------|--------------------------|
--------------------------|--------------------------------|--------------------------|
--------------------------|--------------------------------|--------------------------|
--------------------------|--------------------------------|--------------------------|


   E   E   Q     E   E   E   E      E  E   Q.     E   Q       W                   W
---L------10--------10------10--|---L-----10---------10----|-------------------|-------------------|
------10--------10------10------|------8----------8--------|-------------------|-------------------|
--------------------------------|--------------------------|-------------------|-------------------|
--------------------------------|--------------------------|-------------------|-------------------|
--------------------------------|--------------------------|-------------------|-------------------|
--------------------------------|--------------------------|-------------------|-------------------|


Acoustic - left

     Verse 1 - m.15 (play 6 times)
     E  E  E  E  E  E  E  E     E  E  E  E  E  E  E  E
E||--------------------------|--------------------------||
B||--------------------------|--------------------------||
G||--------2--------2--------|--------2--------2--------||
D||-----2--------0-----0-----|-----0--------0-----0-----||
A||--0-----------------------|--------------------------||
E||-----------3-----------3--|--2--------1-----------1--||

Duration Legend
---------------
W - whole
H - half
Q - quarter
E - 8th
S - 16th
T - 32nd
X - 64th
. - note dotted
|-n-|  - n-tuplets


Tablature Legend
----------------
L - tied note
x - dead note
g - grace note
> - accentuded note
NH - natural harmonic
AH - artificial harmonic
TH - tapped harmonic
SH - semi harmonic
PH - pitch harmonic
h - hammer on
p - pull off
b - bend
br - bendRelease
pb - preBend
pbr - preBendRelease
brb - bendReleaseBend
\n/ - tremolo bar dip
\n - tremolo bar dive
-/n - tremolo bar Release up
/n\ - tremolo bar inverted dip
/n - tremolo bar return
-\n - tremolo bar Release down
S - shift slide
s - legato slide
/ -  slide into from below or out of upwards
\ -  slide into from above or out of downwards
~ - vibrato





Comments


Popular Saraya tabs & chords
Love Has Taken Its Toll Bass Tabs
Seducer Bass Tabs
Love Has Taken Its Toll Chords
Seducer Chords
Love Has Taken Its Toll Tabs
Love Has Taken Its Toll Ukulele
Seducer Ukulele


Song lyrics



↑ Back to top | Tablatures and chords are parodies/interpretations of the original songs. You may use it for private study, scholarship, research or language learning purposes only
© 2014 AZChords.com Contact us | Privacy policy | DMCA | Add/correct tabs | Request tabs | Top 50 tabs