» » »

Sarah Mclachlan, Angel Tabs (ver.1)

Artists:  A B C D E F G H I J K L M N O P Q R S T U V W X Y Z # 

Angel Tabs (ver.1)

Sarah Mclachlan Tabs
Rating:
4/5 (12 votes)
Angel lessons Tabs too difficult? Try these video lessons and learn fast
                Sarah McLachlan – Angel


video of us playing/singing it:

Tuning: D  A  D  E  A  C#

x = mute

Intro/Turn-Around/Outro:
-0----0----0----0-|
-0----0----0----0-|
-0----2----0----2-|
-2----0----2----0-|
-0----0----0----0-|
------------------|

Verse:
-0---0--0----0--0--0---0-|
-2---0--0----0--0--0---0-|
-2---0--2----0--0--0---4-|
-0---x--0----2--2--2---2-|
-2---4--0----0--x--2---2-|
--------0-------4--2---2-|

Chorus:
-0---0---0---0------5-------0---0---0---0-|
-0---0---0---7------0-------0---0---0---0-|
-0---2---0---0------0-------0---0---0---4-|
-2---0---2---6------4-------2---2---2---2-|
-0---0---0---4------5-------0---x---2---2-|
--------------------0-----------4---2---2-|

-0---0---0---0------5--3--5--0---0---0---0-|
-0---0---0---7------0--0--0--0---0---0---0-|
-0---2---0---0------0--0--0--0---0---0---4-|
-2---0---2---6------4--5--4--2---2---2---2-|
-0---0---0---4------5--5--5--0---x---2---2-|
--------------------0--0--0------4---2---2-|
            

comments powered by Disqus
↑ Back to top | Sarah Mclachlan Tabs for Angel. Lyrics for acoustic guitar and electric guitar. Tablatures and chords are parodies/interpretations of the original songs. You may use it for private study, scholarship, research or language learning purposes only