» » »

Saosin, Youre Not Alone Tabs (ver.2)

Artists:  A B C D E F G H I J K L M N O P Q R S T U V W X Y Z # 

Youre Not Alone Tabs (ver.2)

Saosin Tabs
 Rating:
4/5 (4 votes)
Youre Not Alone lessons Tabs too difficult? Try these video lessons and learn fast
1
                
s Slide
b Bend
h hammer on
p pull off
^ vibrato


This song goes

Intro
Verse
Chorus
Verse
Chorus(x2)
Break down
Chorus
Outro

-------------------------------------------------------------------------------
                         You're not alone - Saosin
-------------------------------------------------------------------------------

Tuning:C drop(CGCFAd)

Intro

Lead guitar
 Clean with delay effect
d|-15------14------19------14--15--15------14------19------14------|
A|o------------12------15----------------------12------15------15--|
F|-----12------------------------------12--------------------------|
C|-----------------------------------------------------------------|
G|o----------------------------------------------------------------|
C|-----------------------------------------------------------------|

 |-15------14------19------14--15--15------14------19--17--19--17--|
 |-------------12------15----------------------12-----------------o|
 |-----12------------------------------12--------------------------|
 |-----------------------------------------------------------------| X2 (from first)
 |----------------------------------------------------------------o|
 |-----------------------------------------------------------------|

Rhythm guitar
 distortion(or Overdrive) with delay effect Play it twice
d|---------------------------------------------------------------------------------------------|
A|---------------------------------------------------------------------------------------------|
F|-12-12-12-11-11-11-7-7-7-7-7-7-7-7-7-7-12-12-12-11-11-11-14-14-14h16-14-14-14h16-14h16-14h16-|

X2
G|---------------------------------------------------------------------------------------------|
C|---------------------------------------------------------------------------------------------|


Verse

Rhythm guitar
 Clean with delay effect
|---------------------------------------------------------------------------------------|
|---------------------------------------------------------------------------------------|
|-12-12-12-11-11-11-7-7-7-7-7-7-7-7-7-7-12-12-12-11-11-11-14-14-14-14s16-16-16-16-16-16-|

X3
|---------------------------------------------------------------------------------------|
|---------------------------------------------------------------------------------------|
Play these notes many times (I am tired of counting notes)
|-----------|
|-----------|
|-12-----11-|
|-----------|
|-----------|
|-----------|

Lead guitar
 Clean with delay effect
|-15------14------19------14--15-|
|-------------12------15---------|
|-----12-------------------------| X4
|--------------------------------|
|--------------------------------|
|--------------------------------|

An extra guitar (I think it's rhythm part but they put it...so..)
*strum these chords using palm muting
|----------|
|----------|
|----------|
|-10----12-|
|-10----12-|
|-10----12-|


Chorus
(Chorus second time, rhythm,lead both plays twice each(but not all)

Lead guitar
 Distortion(or Overdrive) with reverb
*listen carefully then you will hear
|----------------------------------------|----------------------------|
|-s12---13---12---10--s12---13---12---10-|s15-15-15-15-15-15-15-15-15-|
|----------------------------------------|----------------------------|
|----------------------------------------|----------------------------|
|----------------------------------------|----------------------------|
|----------------------------------------|----------------------------|

Rhythm guitar
Right before chorus ,Rhythm guitar plays this(slide to down flet from 12 flet)
|------|
|------|
|------|
|-12s0-|
|-12s0-|
|-12s0-|

Strum these chords
|-----------------------------------------|----|
|-----------------------------------------|--8-|
|-12----5---------7----12----5---------7--|--7-|
|-12----5----5----7----12----5----5----7--|--5-|
|-10----3----5----5----10----3----5----5--|----|
|------------5--------------------5-------|----|

Break down

Lead guitar
A section
|---------------------------------------------------------------------------------------|
|---------------------------------------------------------------------------------------|
|---------------------------------------------------------------------------------------|
|-s12----7--s14--12----12h14-12h14--14b(16)14--12--14--12----s7--s9--s7----9--7b--9--7b-|
|---------------------------------------------------------------------------------------|
|---------------------------------------------------------------------------------------|
B sectiion
|---------------------------------------------------------|
|-s12--------15-----------------s15--------15-----(15)s20-|
|--------14------16----14---12---------14------16---------|
|---------------------------------------------------------|
|---------------------------------------------------------|
|---------------------------------------------------------|

Rhythm guitar
 Clean with delay effect
||-15------14------||
||o------------12-o||
||-----12----------|| Repeat it until lead guitar finishes A section
||-----------------||
||o---------------o||
||-----------------||
 Distortion(or Overdrive) with Reverb(or delay)
|------------------------------------------------------------|
|----------------------------s12--------12-----(12)s15---s17-|
|-s12--------14--12----11--9-------12-------14---------------|
|-------12---------------------------------------------------|
|------------------------------------------------------------|
|------------------------------------------------------------|

After Break down
Chorus

Lead guitar
 Distortion(or Overdrive) with reverb
*listen carefully then you will hear
|----------------------------------------|--|----------------------------|
|-s12---13---12---10--s12---13---12---10-|--|s20-20-20-20-20-20-20-20-20-|
|----------------------------------------|--|----------------------------|
|----------------------------------------|X2|----------------------------|
|----------------------------------------|--|----------------------------|
|----------------------------------------|--|----------------------------|

Rhythm guitar
Right before chorus ,Rhythm guitar plays this(slide to down flet from 12 flet)
|------|
|------|
|------|
|-12s0-|
|-12s0-|
|-12s0-|

Strum these chords
|-----------------------------------------|--|----|
|-----------------------------------------|--|--8-|
|-12----5---------7----12----5---------7--|--|--7-|
|-12----5----5----7----12----5----5----7--|X2|--5-|
|-10----3----5----5----10----3----5----5--|--|----|
|------------5--------------------5-------|--|----|


Outro

Lead guitar
 Clean with delay effect
||-15------14------19------14--15-||
||o------------12------15--------o||
||-----12-------------------------||
||--------------------------------||
||o------------------------------o||
||--------------------------------||

Rhythm guitar
 Clean with delay effect
|---------------------------------------------------------------------------------------|
|---------------------------------------------------------------------------------------|
|-12-12-12-11-11-11-7-7-7-7-7-7-7-7-7-7-12-12-12-11-11-11-14-14-14-14s16-16-16-16-16-16-|

X2
|---------------------------------------------------------------------------------------|
|---------------------------------------------------------------------------------------|

|-------------------------------------------|
|-------------------------------------------|
|-12-12-12-11-11-11-7-7-7-7-7-7-7-7-7-7-s12-|
|-------------------------------------------|
|-------------------------------------------|
|-------------------------------------------|
            
Submit corrections

comments powered by Disqus
↑ Back to top | Saosin Tabs for Youre Not Alone. Lyrics for acoustic guitar and electric guitar. 1 Tablatures and chords are parodies/interpretations of the original songs. You may use it for private study, scholarship, research or language learning purposes only